Oops, an error
Loading. Please wait.

Gente bass

16 views 1 this week
no commentswrite comment
1 2 3 4 5
3 more votes to show rating
add to favorites
×
Save as Personal and add changes to this tab that will be seen only by you. Learn more ›
×
You can save this tab as Personal to edit and correct it or add notes. All changes will be seen only by you. Learn more »
launch autoscroll
font size
0
reset
guitar tuner
edit
Autoscroll
slow
fast
+/-
esc
set tempo
stop
ES UN TEMA PIOLA , SAQUENLO QE ESTA BIEN Y ES FACIL.
NO PUSE ALGUNOS FILLS QE TOCA, PERO LA IDEA ESTÁ
SUERTE! . CUALQUIER COSA JUANNI.12@

INTRO - EL BAJO ENTRA AL FINAL

G|------------------------------------------
D|------------------------------------------
A|------------------------------------------
E|-----------------------------------0-1-2-


G|--------------------------------------------
D|-----------2-0------------------2-0---------
A|-----2-5-------3-2-3-2-0----2-5------3-2-3-2
E|--3-----------------------3-----------------   X4


"QUE ATREVIDOS LOS QE DICEN "


G|------------------------------------------
D|------------------------------------------
A|----3-3-3-3-3-3-3-------------------------
E|------------------------------------------


G|--------------------------------------------
D|-----------2-0------------------2-0---------
A|-----2-5-------3-2-3-2-0----2-5------3-2-3-2
E|--3-----------------------3-----------------

" Y DIGAN LO QUE DIGAN"

G|------------------------------------------
D|------------------------------------------
A|-------5--55---33-------------------------
E|---------------------3--33333333----------

"TODA ESA GENTE DE VERDAD"

G|------------------------------------------
D|------------------------------------------
A|---5-5-5-5-5-5-5-5----3/555--3/555--------
E|------------------------------------------


COMO EN EL INTRO

G|------------------------------------------
D|------------------------------------------
A|------------------------------------------
E|------------------------------------------

"VOY A BOICOTEAR"

G|--------------------------------------------
D|-----------2-0------------------2-0---------
A|-----2-5-------3-2-3-2-0----2-5------3-2-3-2
E|--3-----------------------3-----------------  X2


"QUE ATREVIDOS LOS QUE DICEN "

G|------------------------------------------
D|------------------------------------------
A|----3-3-3-3-3-3-3-------------------------
E|------------------------------------------


G|--------------------------------------------
D|-----------2-0------------------2-0---------
A|-----2-5-------3-2-3-2-0----2-5------3-2-3-2
E|--3-----------------------3-----------------


"Y NO HACE FALTA PLATA"

G|------------------------------------------
D|------------------------------------------
A|-------5--55---33-------------------------
E|---------------------3--33333333----------


"QUE LA FIESTA NO TERMINÓ"

G|------------------------------------------
D|------------------------------------------
A|---5-5-5-5-5-5-5-5----3/555--3/555--------
E|----------------------------------------3-


" UN, DOS, TRES, VA ! "

G|------------------------------------------
D|------------------------------------------
A|--4-3-1----1--------4-3-1-----1-----------
E|--------3-----3-----------3-3---3---------   X4

" Y DIGAN LO QE DIGAN "

G|------------------------------------------
D|------------------------------------------
A|-------5--55---33-------------------------
E|---------------------3--33333333----------   X4


G|------------------------------------------
D|------------------------------------------
A|---5-5-5-5-5-5-5-5----3/555--3/555--------
E|----------------------------------------3-

G|-----------------------------------------
D|--------------------------------------5--
A|-----5-----3-2-0------5------3-2-0-------
E|--3-----3---------3------3---------------


ESPERO QE LA PUEDAN SACAR
AGUANTE LA VELA (8)
Suggest correction
Creating personal tab
Creating personal tab
You can edit any tab online and save it as your Personal.

You can edit, replace or remove any tab part or add personal notes – all changes will be seen only by you.

Personal tabs can be accessed anytime from any device, even offline.
Learn more »
Give kudos to tab author, rate the tab!
1 2 3 4 5
comments
print report bad tab
guest
Wanna post a correction for this tab? Suggest correction