Oops, an error
Loading. Please wait.

Mi Semilla tab

version 3
version 3

Whole song

187 views 1 this week
no commentswrite comment
1 2 3 4 5
3 more votes to show rating
add to favorites
×
Save as Personal and add changes to this tab that will be seen only by you. Learn more ›
×
You can save this tab as Personal to edit and correct it or add notes. All changes will be seen only by you. Learn more »
launch autoscroll
font size
0
reset
how to read this tab
guitar tuner
edit
Autoscroll
slow
fast
+/-
esc
set tempo
stop
Bueno aca les mando un acompañamiento para la cancion que queda
muy buena tocada con 2 guitarras

1/---------------------------------------/
2/-------------9--------------------9----/
3/--9-9-9-9-11---11-8----9-9-9-9-11---11-/  x2
4/---------------------------------------/
5/---------------------------------------/
6/---------------------------------------/

1/------12--11-9------------12-12-12-12--11-9---/
2/---------------12-9-------------------------12/
3/--9-9-----------------9-9---------------------/
4/----------------------------------------------/  x2
5/----------------------------------------------/
6/----------------------------------------------/

1/-(--------9----)----/---------------------------/
2/-(10-9-10---12-)-x3-/-10-9-10-9------9----10-9--/
3/-(-------------)----/-----------9-11---11------9/

Esta muy buena lo complicado es encontrarle el ritmo del principio
despues es todo facil,capas que les complica al final

cualquier consulta matdanubio@

            
            
Suggest correction
Creating personal tab
Creating personal tab
You can edit any tab online and save it as your Personal.

You can edit, replace or remove any tab part or add personal notes – all changes will be seen only by you.

Personal tabs can be accessed anytime from any device, even offline.
Learn more »
Give kudos to tab author, rate the tab!
1 2 3 4 5
comments
print report bad tab
guest
Wanna post a correction for this tab? Suggest correction