Oops, an error
Loading. Please wait.

Un Frasco bass

48 views 1 this week
no commentswrite comment
1 2 3 4 5
2 more votes to show rating
add to favorites
×
Save as Personal and add changes to this tab that will be seen only by you. Learn more ›
×
You can save this tab as Personal to edit and correct it or add notes. All changes will be seen only by you. Learn more »
launch autoscroll
font size
0
reset
guitar tuner
edit
Autoscroll
slow
fast
+/-
esc
set tempo
stop
Aca les dejo esta tablatura de este temazo...

El bajo entra con la bata y la segunda guitarra
despues del punteo de la primera...

x=Repite varias veces la misma nota

INTRO
G|-------------------------------------------------------
D|-------------------------------------------------------
A|-------------6-5-6-------------6-5-6-------------------
E|-3-2-3-6-5-6-------3-2-3-6-5-6------6-5-6--------------

G|-------------------------------------------------------
D|-------------------------------------------------------
A|-------------6-5-6-------------5-6/13------------------
E|-3-2-3-6-5-6-------3-2-3-6-5-6-------------------------

VERSO(en el primer verso el bajo lo unico que hace
es esto en la parte que dice "seguro hay motiivos")
G|-8-8----------
D|--------------
A|--------------
E|-?------------

ESTRIBILLO1
G|--------------
D|-------------- x4
A|-------6x-----
E|-6x-1x--------

Lento,suave,letal
G|----------------
D|----------------
A|---6-4------4---
E|-4-----4-6x---4-

VERSO2(marca los acordes de la guitarra de a 1 golpe)
G|--------
D|-5------ x7
A|---6----
E|--------

ESTRIBILLO2(es igual pero esta parte la hace x2)

Lento,suave,letal
G|----------------
D|---------------- x2
A|---6-4------4---
E|-4-----4-6x---4-

REPITE LA INTRO

VERSO3(igual pero entra a la mitad del este)

ESTRIBLLO3(cambia la cantidad de veces que repite las vueltas)
G|--------------
D|-------------- x8
A|-------6x-----
E|-6x-1x--------

Lento,suave,letal
G|----------------
D|---------------- x3
A|---6-4------4---
E|-4-----4-6x---4-


Espero que les guste =)

            
            
Suggest correction
Creating personal tab
Creating personal tab
You can edit any tab online and save it as your Personal.

You can edit, replace or remove any tab part or add personal notes – all changes will be seen only by you.

Personal tabs can be accessed anytime from any device, even offline.
Learn more »
Give kudos to tab author, rate the tab!
1 2 3 4 5
comments
print report bad tab
guest
Wanna post a correction for this tab? Suggest correction