Oops, an error
Loading. Please wait.

Brindo bass

37 views 1 this week
no commentswrite comment
1 2 3 4 5
3 more votes to show rating
add to favorites
×
Save as Personal and add changes to this tab that will be seen only by you. Learn more ›
×
You can save this tab as Personal to edit and correct it or add notes. All changes will be seen only by you. Learn more »
launch autoscroll
font size
0
reset
guitar tuner
edit
Autoscroll
slow
fast
+/-
esc
set tempo
stop
INTRO:

D.--------3-2-------------------------
A.333333------5-3-2-0-----------------   x2
E.--------------------111111--3333333-

D.------------------------------------
A.333333--233333--23333--2333--233333-
E.------------------------------------

C              A          F                   G
Hoy brindo por el amor... por los sueños que dejado atrás,
D.--------------------------------------------------------
A.33333333333---------------------------------------------
E.-------------5555555555---111111111111------3333333333--


C              A           F                 G
Brindo por la decepción... De saber que ami lado no estas.
D.--------------------------------------------------------
A.33333333333---------------------------------------------
E.-------------5555555555---111111111111------3333333333--


C               A         F                   G
hoy brindo para no llorar brindo para tratar de olvidar
D.--------------------------------------------------------
A.33333333333---------------------------------------------
E.-------------5555555555--111111111111------3333333333---


C           A           F         G
brindo para poder soñar y tenerte una vez mas
D.--------------------------------------------------------
A.33333333------------------------------------------------
E.----------5555555555--1111111----3333333333-------------


  F      G       C                          F
 Y  borracho ala luna he preguntado por tu amor
D.--------------------------------------------------------
A.---------------33333333333-2333-23333-333---------------
E.11111-3333333-----------------------------11111111------

        G               C
 Desesperado por las cosas Que veo a mi alrededor
D.--------------------------------------------------------
A.-------------------33333333333-2333-23333-333-----------
E.1111--3333333-------------------------------------------


 F          G              C  B   A
 Confundido triste acabado y sin corazón
D.--------------------------------------------------------
A.------------------------3333222200----------------------
E.1111111---333333333-------------------------------------


 F              G          C
 Nena creo que he perdido la Razón
D.--------------------------------------------------------
A.------------------------3333333-------------------------
E.11111111-----333333333----------------------------------

          "Y se repite la canción"

 FINAL:
 F              G          C
 Nena creo que eh perdido la razón wouoo no no no
D.--------------------------------------------------------
A.--------------------------3333333------------------------
E.-11111111------333333333----------------------------------

      F                  G              C
 Nena es tu culpa que la cague en el amor
D.--------------------------------------------------------
A.-------------------------------------3------------------
E.----1-------------------3-------------------------------

Y eso es todo (:

Espero les guste y si tienen alguna duda les dejo mi correo
" rodrigo_dinosaur@ "

            
            
Suggest correction
Creating personal tab
Creating personal tab
You can edit any tab online and save it as your Personal.

You can edit, replace or remove any tab part or add personal notes – all changes will be seen only by you.

Personal tabs can be accessed anytime from any device, even offline.
Learn more »
Give kudos to tab author, rate the tab!
1 2 3 4 5
comments
print report bad tab
guest
Wanna post a correction for this tab? Suggest correction