Oops, an error
Loading. Please wait.

El Zar Tab

version 1
version 1

Whole song

Interactive

962 views 1 this week
no commentswrite comment
1 2 3 4 5
please rate
add to favorites
launch autoscroll
font size
0
reset
how to read this tab
guitar tuner
Autoscroll
slow
fast
+/-
esc
set tempo
stop
Help us to improve Ultimate-Guitar.com Take our survey!
×
Author
Difficulty
ohb_0503 276
novice
Excelente canción de La Vida Boheme, en espera del segundo album :)

(Intro)

[guitarra 1]---> C#m    E

[guitarra 2]
E/------------/
B/--12tr--14tr/
G/------------/
D/------------/
A/------------/
E/------------/

(Verso)

C#m                        E
Golpe de tren, de rodillas muévanse pies, que no veo
     F#m               A
Si quiera la tez de mi piel, oh mi vida
    E              B
Si tenía sombra se fue de puntillas
    F#m                  A
Si existía el sol se nos fue ya no hay día
 E                B
Ahora nos queda comer tus costillas.

(Puente)

E/--------7-------7-11----------11--------------7-------7-----------7-------/
B/--9---9---9---9------12----12----12----12---9---9---9---9---9---9---9---9-/
G/----9-------9-----------13----------13----9-------9-----------9-----------/
D/--------------------------------------------------------------------------/
A/--------------------------------------------------------------------------/
E/--------------------------------------------------------------------------/ (repetir)

(Coro)

  C#m
Cubrieron el sol con pastillas
 A                       E
Pero Dios, si los pillas es mejor,
                  B           G#
Si los pillas nos vamos cantando a la luna
   C#m
En un carnaval, un eco abismal
   A 
Se va todo el mal
          E                   B
Y explota el zar, que explote el zar
       G#
Y que cante la hambruna.

[rasgueo de la guitarra ritmica (coro)]

   C#m
E/-xx444444444-xxxx44444444444-xx/
B/-xx555555555-xxxx55555555555-xx/
G/-xx666666666-xxxx66666666666-xx/
D/-xx666666666-xxxx66666666666-xx/
A/-xx444444444-xxxx44444444444-xx/
E/-------------------------------/

   A
E/-xx555555555-xxxx55555555555-xx/
B/-xx555555555-xxxx55555555555-xx/
G/-xx666666666-xxxx66666666666-xx/
D/-xx777777777-xxxx77777777777-xx/
A/-xx777777777-xxxx77777777777-xx/
E/-xx555555555-xxxx55555555555-xx/

   E
E/-------------------------------/
B/-xx999999999-xxxx99999999999-xx/
G/-xx999999999-xxxx99999999999-xx/
D/-xx999999999-xxxx99999999999-xx/
A/-xx777777777-xxxx77777777777-xx/
E/-------------------------------/

   B           G#
E/-------------------------------/
B/-xx777777777-xxxx44444444444-xx/
G/-xx888888888-xxxx55555555555-xx/
D/-xx999999999-xxxx66666666666-xx/
A/-xx999999999-xxxx66666666666-xx/
E/-xx777777777-xxxx44444444444-xx/

(Verso)

 C#m                          E
Llanto de fe moja el barro, lo sientes y crees Mil tambores:
   F#m             A
"Mirando pal frente nadie de cuclillas,
  E                  B
Mirando pal cielo pisando la arcilla,
    F#m               A
Que nadie asienta en callada agonía"
  B                   G#
Gritando más fuerte y cantando ese día...

(Puente)

E/--------7-------7-11----------11--------------7-------7-----------7-------/
B/--9---9---9---9------12----12----12----12---9---9---9---9---9---9---9---9-/
G/----9-------9-----------13----------13----9-------9-----------9-----------/
D/--------------------------------------------------------------------------/
A/--------------------------------------------------------------------------/
E/--------------------------------------------------------------------------/ (repetir)

(Coro)

C#m
Cubrieron el sol con pastillas
 A                       E
Pero Dios, si los pillas es mejor,
                  B           G#
Si los pillas nos vamos cantando a la luna
   C#m
En un carnaval, un eco abismal
   A 
Se va todo el mal
          E                   B
Y explota el zar, que explote el zar
       G#
Y que cante la hambruna.

C#m
Cubrieron el sol con pastillas
 A                       E
Pero Dios, si los pillas es mejor,
                  B           G#
Si los pillas nos vamos cantando a la luna
   C#m
En un carnaval, un eco abismal
   A 
Se va todo el mal
          E                   B
Y explota el zar, que explote el zar
       G#
Y que cante la hambruna.

[rasgueo de la guitarra ritmica (coro)]

   C#m
E/-xx444444444-xxxx44444444444-xx/
B/-xx555555555-xxxx55555555555-xx/
G/-xx666666666-xxxx66666666666-xx/
D/-xx666666666-xxxx66666666666-xx/
A/-xx444444444-xxxx44444444444-xx/
E/-------------------------------/

   A
E/-xx555555555-xxxx55555555555-xx/
B/-xx555555555-xxxx55555555555-xx/
G/-xx666666666-xxxx66666666666-xx/
D/-xx777777777-xxxx77777777777-xx/
A/-xx777777777-xxxx77777777777-xx/
E/-xx555555555-xxxx55555555555-xx/

   E
E/-------------------------------/
B/-xx999999999-xxxx99999999999-xx/
G/-xx999999999-xxxx99999999999-xx/
D/-xx999999999-xxxx99999999999-xx/
A/-xx777777777-xxxx77777777777-xx/
E/-------------------------------/

   B           G#
E/-------------------------------/
B/-xx777777777-xxxx44444444444-xx/
G/-xx888888888-xxxx55555555555-xx/
D/-xx999999999-xxxx66666666666-xx/
A/-xx999999999-xxxx66666666666-xx/
E/-xx777777777-xxxx44444444444-xx/

Recuerden puntuar el tab! saludos desde Los Teques!

Suggest correction new What's this?
You can suggest a correction to this tab. Community and Mods will review your correction and vote to approve or reject it.
comments
We did not receive enough feedback on this tab! Please rate:
print report bad tab
1 2 3 4 5
guest
You may want to rate the tab now too:
select rating
Please do not post tabs as comments. Select "correction" instead!