Oops, an error
Loading. Please wait.

Flamingo Tab

version 1
version 1

Whole song

Interactive

4,553 views 6 this week
1 commentread comment
1 2 3 4 5
excellent!
x 3
add to favorites
launch autoscroll
font size
0
reset
how to read this tab
guitar tuner
Autoscroll
slow
fast
+/-
esc
set tempo
stop
Help us to improve Ultimate-Guitar.com Take our survey!
×
Author
Difficulty
Output 316
novice
-------------------------------------------------------------------------------
                           FLAMINGO - La Vida Boheme
-------------------------------------------------------------------------------
Tabbed by: Output
Email: sahm9595@hotmail.com

Hey guys! Here's the tab for the venezuelan band La Vida Bohéme :) Hope you like it!!

This is the lead guitar I believe

Bueno aqui les tengo la tablatura de Flaming de la banda venezolana La Vida Bohéme :) 
espero les guste!!

Solo es la guitarra principal creo

Tuning: EADGBe

() = optional note/ nota opcional

Intro:
                                                                            x?
e|---------------------------------------------------------------------------|
B|---------------------------------------------------------------------------|
G|---------------------------------------------------------------------------|
D|-6--6--6--6--6--6--6--6--6--6--6--6--6--6--6--6--6--6--6--6--6--6--6--6----|
A|---------------------------------------------------------------------------|
E|---------------------------------------------------------------------------|

Repeat that quite a few times, I didn't really count them.
Se repite unas cuantas veces, no las conte.

e|--------------|
B|----9-9-9-----|
G|----9-9-9-----|
D|----7-7-7-----|
A|--------------|
E|--------------|

Main Riff/ Riff Principal

e|------(0)------(0)---------------------------------------------|
B|-------x-------x--------------9----------9---------------------|
G|-------9-------9--------------9----------9---------------------|
D|-----9---9---9---9---------11--11----11---11-------------------|
A|--11-------11-----11----12--------12---------12----------------|
E|---------------------------------------------------------------|

Verse
                                                                                 x6
e|--------------------------------------------------------------------------------|
B|--------------------------------------------------------------------------------|
G|-9-9-9-9-9-9-9-9-9-9-9-9-9-9-9-9-13-13-13-13-13-13-13-13-11-11-13-13-11-11\-----|
D|--------------------------------------------------------------------------------|
A|--------------------------------------------------------------------------------|
E|--------------------------------------------------------------------------------|

BREAKDOWN

e|-|-------------------|--------------------------|
B|-|-(9)-(9)-(9)-(9)---|-(10)-(10)-(10)-(10)------|
G|-|-13--13--13--13----|--14---14---14---14-------|
D|-|-11--11--11--11----|--14---14---14---14-------|
A|-|-------------------|---0----0----0----0-------|
E|-|-------------------|--------------------------|
            x4                     x4

MAIN RIFF/ RIFF PRINCIPAL

Play the verse 3 times and then...

Toca el verso 3 veces y luego...

e|--------------------------------------------------------------------------------|
B|--------------------------------------------------------------------------------|
G|-9-9-9-9-9-9-9-9-9-9-9-9-9-9-9-9-13-13-13-13-13-13-13-13-16-16-13-13-16-16------|
D|--------------------------------------------------------------------------------|
A|--------------------------------------------------------------------------------|
E|--------------------------------------------------------------------------------|

Silent part...

Parte en silencio...

e|---------------------------------------------|
B|---------------------------------------------|
G|---------------------------------------------|
D|---------------------------------------------|
A|---------------------------------------------|
E|-5--5--4--4--2--0----------------------------|

Solo
                                                                              x2
e|---------------------------------------------------------------------------|
B|---17--16--14---------------17--16--14-------------------------------------|
G|---------------15-13--------------------15---------------------------------|
D|----------------------(14)-------------------(14)--------------------------|
A|---------------------------------------------------------------------------|
E|---------------------------------------------------------------------------|

Now play this two parts together, 1st guitar is only played once and 2nd twice.

Ahora toca estas 2 partes juntas, la guitarra 1 lo toca una vez y la 2 dos veces.

Guitar 1/ Guitarra 1
                                                                                     x1
e|-16-16-16-14-12--16-16-16-16-17-16-17--16-16-16-14-12--16-16-16-16-17-16-17-------|
B|----------------------------------------------------------------------------------|
G|----------------------------------------------------------------------------------|
D|----------------------------------------------------------------------------------|
A|----------------------------------------------------------------------------------|
E|----------------------------------------------------------------------------------|

Guitar 2/ Guitarra 2
                                                                                     x2
e|----------------------------------------------------------------------------------|
B|-17-17-17-16-13--17-17-17-17-19-17-19--17-17-17-16-13--17-17-17-17-19-17-19-------|
G|----------------------------------------------------------------------------------|
D|----------------------------------------------------------------------------------|
A|----------------------------------------------------------------------------------|
E|----------------------------------------------------------------------------------|

Guitar 1/ Guitarra 1
                                                                                     x2
e|---16-16---16-16---16-16---16-16-------12-12---12-12---12-12---12-12--------------|
B|----------------------------------------------------------------------------------|
G|----------------------------------------------------------------------------------|
D|----------------------------------------------------------------------------------|
A|----------------------------------------------------------------------------------|
E|----------------------------------------------------------------------------------|

Guitar 2/ Guitarra 2
                                                                                    x2
e|---------------------------------------------------------------------------------|
B|---17-17---17-17---17-17---17-17--------12-12---12-12---12-12---12-12------------|
G|---------------------------------------------------------------------------------|
D|---------------------------------------------------------------------------------|
A|---------------------------------------------------------------------------------|
E|---------------------------------------------------------------------------------|

Guitar 1/ Guitarra 1

Play this and then it fades away while playing the 16th fret.

Toca esto y después se va desvaneciendo el sonido en el traste 16.

e|---16-16---16-16-----13-13---13-13---16-16---16-16---16-16---16------------|
B----------------------------------------------------------------------------|
G|---------------------------------------------------------------------------|
D|---------------------------------------------------------------------------|
A|---------------------------------------------------------------------------|
E|---------------------------------------------------------------------------|

Guitar 2/ Guitarra 2

e|-------------------------------------------------------------------------|
B|---17-17---17-17-----12-12---12-12---17-17---17-17-----17-17---17--------|
G|-------------------------------------------------------------------------|
D|-------------------------------------------------------------------------|
A|-------------------------------------------------------------------------|
E|-------------------------------------------------------------------------|

At the end you can hear this chord being played

Al final se escucha este acorde

e|--------------|
B|----5-5-5-----|
G|----4-4-4-----|
D|----2-2-2-----|
A|--------------|
E|--------------|

hope you liked it!

espero que les haya gustado!

************************************

| /   slide up
| \   slide down
| h   hammer-on
| p   pull-off
| ~   vibrato
| +   harmonic
| x   Mute note
| b   Bend
| pb  Pre-bend
| br  Bend release
| pbr Pre-bend release
| brb Bend release bend

************************************
Suggest correction
What's this?
You can suggest a correction to this tab. Community and Mods will review your correction and vote to approve or reject it.
comments
We did not receive enough feedback on this tab! Please rate:
print report bad tab
1 2 3 4 5
1 comment total.
0 reply
Raymet 11 wrote on October 22 2011, 02:26 pm

Tripa.... esta buena la partitura.... bien explicada.... ahora vamos con Huxley o_O

guest
You may want to rate the tab now too:
select rating
Please do not post tabs as comments. Select "correction" instead!