Oops, an error
Loading. Please wait.

Cuando Lleguen Las Luvias tab

version 2
version 2

Whole song

35 views 1 this week
no commentswrite comment
1 2 3 4 5
3 more votes to show rating
add to favorites
×
Save as Personal and add changes to this tab that will be seen only by you. Learn more ›
×
You can save this tab as Personal to edit and correct it or add notes. All changes will be seen only by you. Learn more »
launch autoscroll
font size
0
reset
how to read this tab
guitar tuner
edit
Autoscroll
slow
fast
+/-
esc
set tempo
stop
Hola a todos esta es una rola de lujo, quisiera poner el solo de esta rola, 
ya que hay no he visto ninguno y la verdad es un solo muy facilito, 
nada mas chequen el tiempo y eso es todo.
BUeno pues aqui vamos

Primero que nada voy a poner el intro que es una 
especie de circulo arpegiado empezando en C (Do mayor) 
y la secuencia es la siguiente.

Instrucciones, pon todas las posiciones y arpegealas 
sera mucho mas facil y no te tardaras tanto en 
acomodar los dedos

(Si te das cuenta
es la posicion de C
y es un arpegio
sencillo)
  C               Em                Am
-------0-----------------0-----------------0----------
-1---1---1---1-----0---0---0---0----1----1---1---1----
---0-------0---------0-------0---------2-------2------
------------------------------------------------------
-3-----------------2----------------0-----------------
------------------------------------------------------
F
--------0-----------
--1---1---1---1-----
----2-------2-------
--3-----------------
--------------------

Ahora se repite exactamente lo mismo pero con una 
pequeña variacion solo es una nota, asi que usa tu 
meñique para pisarla y eso es todo.

      Esta es
      LA nota
      que cambia
      usa el
      meñique
  C    *           Em    *            Am
-------1-----------------1-----------------0----------
-1---1---1---1-----0---0---0---0----1----1---1---1----
---0-------0---------0-------0---------2-------2------
------------------------------------------------------
-3-----------------2----------------0-----------------
------------------------------------------------------
F
--------0-----------
--1---1---1---1-----
----2-------2-------
--3-----------------
--------------------

Despues tocala dos veces desde el principio y ya 
tienes el intro
Ahora para dar la entrada, terminas en F despues pasas 
a C y ahi haces esto 

---------
--------- Esto lo hace el bajo pero si no tienes bajo
--------- o estas tocando solo pues hazlo despues
----2s5-- de el adorno caes a C y haces el ritmo. 
--3------  
---------  

El ritmo es C G Am F G

Bien ahora la letra.
El ritmo es a cuatro cuartos o sea el clasico de rock.

C                        G                   Am
Si cuando lleguen las lluvias no me encuentras
F                   G                C
Es porque fui a buscar mis herramientas
F                G          C              Am
para cavar una fosa y sepultar todas mis cosas
F               G        C
sabes que guardaba para ti.

C                        G               Am
Si cuando lleguen las lluvias me ves parado
F                G            C
escurriendo tristezas sobre mojado
F                      G          C              Am
no creas que estoy llorando si ves brillando mi cara
F               G        C
es tan solo la lluvia que no para

SOLO
Acompañamiento
 Esto tocalo seguido 
 en las barras has una
 pausa y sigue          

         C                Am    F           G
-5-8-7-5-7-5-8-7-5-7-¦5-7-5-¦-5-8-7-5-------10-8-7-
-5---------5---------¦------¦-5-------7-6-5--------
-5---------5---------¦------¦-5--------------------
---------------------------------------------------
---------------------------------------------------
---------------------------------------------------
         C
---------8-¦--8-10-15-13-12-12---10---13--12-12-10-10-
-10-8-7--8-¦-8-----------------8----8-----------------
---------9-¦------------------------------------------
------------------------------------------------------
------------------------------------------------------
------------------------------------------------------

--8-¦8-7-5-5-3s5-8------
-8--¦8-7-6-6-5s6-8------
-----------------9------
------------------------
------------------------
------------------------

C                        G               Am
Si cuando lleguen las lluvias ves que me voy
F                G            C
es porque pudo mas que tu mi frustracion
F                 G          C                 Am
es que no encontre otro modo para taparme este hoyo
                F        G           C
que se ha hecho grande a fuerza de esperar.


C                    G                      Am
Ayer llegaron las lluvias hoy tengo que partir
F                G           C                  Am
es que no encontre otro modo para arrancarte de mi
F                     G               C          Am
mandame un beso en el aire que con el aire guardare
F                  G              F      Em       C
dame un beso en la mejilla por si no te vuelvo a ver.


Bueno creo que eso es todo, fue muy tardado hacer esta 
transcripcion, asi que porfavor denle buen uso y 
chequen y escuchen la rola para cuadrar los tiempos, 
trate de hacerla lo mas explicita posible para que la 
saquen rapidamente, porfavor si tienen alguna duda 
escribanme que con gusto les hechare la mano.

Este trabajo se lo dedico a la ESCUELA SUPERIOR DE 
COMPUTO DEL INSTITUTO POLITECNICO NACIONAL Y A TODA LA 
GENTE QUE HA INFLUIDO EN MI CRECIMIENTO MUSICAL.

GRACIAS.
QUE DIOS LOS LLENE DE PAZ Y DE BENDICIONES.

            
            
Suggest correction
Creating personal tab
Creating personal tab
You can edit any tab online and save it as your Personal.

You can edit, replace or remove any tab part or add personal notes – all changes will be seen only by you.

Personal tabs can be accessed anytime from any device, even offline.
Learn more »
Give kudos to tab author, rate the tab!
1 2 3 4 5
comments
print report bad tab
guest
Wanna post a correction for this tab? Suggest correction