Oops, an error
Loading. Please wait.

Tafi Del Valle chords

20 views 1 this week
no commentswrite comment
1 2 3 4 5
3 more votes to show rating
add to favorites
×
Save as Personal and add changes to this tab that will be seen only by you. Learn more ›
×
You can save this tab as Personal to edit and correct it or add notes. All changes will be seen only by you. Learn more »
launch autoscroll
font size
0
reset
transpose
0
reset
display chords
guitar tuner
edit
Autoscroll
slow
fast
+/-
esc
set tempo
stop
Strumming
There is no strumming pattern for this song yet. and get +5 IQ
El punteo esta bien pasado, el otro dejaba que desear

Intro
E|-----------0-0--5-5-----5-5--7-7-----5-7-5--------------
B|-------2-2----------5-5----------5-5-------5-5----------
G|--2-2---------------------------------------------------
D|--------------------------------------------------------
A|--------------------------------------------------------
E|--------------------------------------------------------

E|-----------0-0--5-5-----5-5--9-9-----5-7-5--7-7---------
B|-------2-2----------5-5----------5-5--------------------
G|--2-2---------------------------------------------------
D|--------------------------------------------------------
A|--------------------------------------------------------
E|--------------------------------------------------------

-Repite punteo-

A              D   E                 A
Callejuelas sin fin casa de barrio y paja
Caballos que relinchan y horneros que cantan
Perro que ladra a un hombre que recién llega en chata
Que carga su equipaje y que se va pa las casa
La escuelita cerró ya están de vacaciones
No ha quedado ningún niño pero sí sus corazones
Hombres están hachando un árbol monte adentro
Ya se les hizo la hora porque les llega el invierno

A           D    E            A
Viento del norte sopla en las calles
bailan felices en tafi del valle

RIFF

Y hace que brille el sol y el pueblo está contento
Desprendiendo el perfume que deja las flores del cerro
Y hace que brille el sol y el pueblo esta contento
Ahí se levanta un viento que da el suspiro a este cerro

A -0-4-2-------------
E -------4-0-2-4-5---  (X 6)

A           D    E            A
Viento del norte sopla en las calles
bailan felices en tafi del valle

            
            
Suggest correction
Creating personal tab
Creating personal tab
You can edit any tab online and save it as your Personal.

You can edit, replace or remove any tab part or add personal notes – all changes will be seen only by you.

Personal tabs can be accessed anytime from any device, even offline.
Learn more »
Give kudos to tab author, rate the tab!
1 2 3 4 5
comments
print report bad tab
guest
Wanna post a correction for this tab? Suggest correction