Oops, an error
Loading. Please wait.

Halfway Out Tab

74 views 1 this week
no commentswrite comment
1 2 3 4 5
please rate
add to favorites
launch autoscroll
font size
0
reset
how to read this tab
guitar tuner
Autoscroll
slow
fast
+/-
esc
set tempo
stop
Help us to improve Ultimate-Guitar.com Take our survey!
×
Labyrinth
Halfway out
Tune down 1 whole step.

verse
------------------------------------------------------|
------------------------------------------------------| repeat 8 times
--1-1-1-1-1-1-1-1-------------------3-3-3-3-3-3-3-3---|
--2-2-2-2-2-2-2-2--4-4-4-4-4-4-4-4--2-2-2-2-2-2-2-2---|
--2-2-2-2-2-2-2-2--4-4-4-4-4-4-4-4--------------------|
-------------------2-2-2-2-2-2-2-2--------------------|
pm|---------------------------------------------------|         let ring

chorus
-----------------------------------------------------------|
-----------------------------------------------------------|reapeat 4 times
--7-7-7-7-6-6-6-6------------------------------------------|
--7-7-7-7-7-7-7-7------------------------------------------|
--5-5-5-5-7-7-7-7------------------------------------------|
----------5-5-5-5-53-5-3-0---------------------------------|

interlude
------------------------------------------------------------------|
------------------------------------------------------------------|
--------------------------------------------------9-9-9-9-9-9-9-9-|
--7-7-7-7-7-7-7-7-5-5-5-5-5-5-5-5-2-2-2-2-2-2-2-2-9-9-9-9-9-9-9-9-|
--7-7-7-7-7-7-7-7-5-5-5-5-5-5-5-5-2-2-2-2-2-2-2-2-7-7-7-7-7-7-7-7-|
--5-5-5-5-5-5-5-5-3-3-3-3-3-3-3-3-0-0-0-0-0-0-0-0-0-0-0-0-0-0-0-0-|
pm|---------------------------------------------------------------|

---------------------------------------------------------------------|
--2-2-2-2-2-2-2-2-4-4-4-4-4-4-4-4-4-6-6-6-6-6-6-6-6-8-8-8-8-8-8-8-8--|
--3-3-3-3-3-3-3-3-5-5-5-5-5-5-5-5-5-7-7-7-7-7-7-7-7-9-9-9-9-9-9-9-9--|
---------------------------------------------------------------------|
---------------------------------------------------------------------|
---------------------------------------------------------------------|

song structure
verse
chorus
verse
interlude
chorus
verse
chorus.
Suggest correction
Give kudos to tab author, rate the tab!
1 2 3 4 5
comments
print report bad tab
guest
You may want to rate the tab now too:
select rating
Please do not post tabs as comments. Select "correction" instead!