Oops, an error
Loading. Please wait.

Faith tab

868 views 9 this week
1 commentread comment
1 2 3 4 5
x 3
add to favorites
×
Save as Personal and add changes to this tab that will be seen only by you. Learn more ›
×
You can save this tab as Personal to edit and correct it or add notes. All changes will be seen only by you. Learn more »
launch autoscroll
font size
0
reset
how to read this tab
guitar tuner
edit
Autoscroll
slow
fast
+/-
esc
set tempo
stop
Faith - Lacey Sturm

Tuning: Drop D
Difficulty: Medium
Tabbed by: notgonnadie


[Intro]

e|---------------------------|-----------------------------|
B|---------------------------|-----------------------------|
G|---------------------------|-----------------------------|
D|---2---2---2-2---2-3---3---|---2---2---2-----------------|
A|-3---3---3-----3-----5---5-|-0---0---0---0-0--0-0-0------|
D|---------------------------|-----------------------------|

e|---------------------------|-----------------------------|
B|---------------------------|-----------------------------|
G|---------------------------|-----------------------------|
D|---2---2---2-2---2-3---3---|---2---2---2---2-------------|
A|-3---3---3-----3-----5---5-|-0---0---0---0---------------|
D|---------------------------|-----------------------------|

[Verse]

"Laughter tickles my tongue..."
e|---------------------------|-----------------------------|
B|---------------------------|-----------------------------|
G|---------------------------|-----------------------------|
D|---2---2---2-2---2-3---3---|---2---2---2--------2--------|
A|-3---3---3-----3-----5---5-|-0---0---0---0-0--0---0------|
D|---------------------------|-----------------------------|

"A breathless chase has begun..."
e|---------------------------|-----------------------------|
B|---------------------------|-----------------------------|
G|---------------------------|-----------------------------|
D|---2---2---2-2---2-3---3---|---2---2---2---2--5-2-0------|
A|-3---3---3-----3-----5---5-|-0---0---0---0---------------|
D|---------------------------|-----------------------------|

"I'm gonna let you in..."
e|-----------3-----|--------------------|----------------------------|-----------------------|
B|-----------3---6-|-----1-----0-----1--|----------------------------|-----------------------|
G|-----------5-----|--------------------|----------------------------|-----------------------|
D|---5---5---5-----|---2-----2-----2----|----2---2---2-2---2-3---3---|---2---2---2-----------|
A|-3---3---3-------|-0-----0-----0------|--3---3---3-----3-----5---5-|-0---0---0----0-0-0----|
D|-----------------|--------------------|----------------------------|-----------------------|

"Love how you gamble your pride..."
e|---0---3--|---------3-------|---0----3-|-----------------|
B|---0---1--|-------3---3-----|---0----1-|-------3---------|
G|---0---0--|-----5-------5---|---0----0-|-----5-----------|
D|-2---3----|---5-----------5-|-2----3---|---5-------------|
A|----------|-3---------------|----------|-3--------2------|
D|----------|-----------------|----------|-----------------|


[Chorus]

"Will you always chase me like this? Will time and space leave when we kiss?"
e|-8---|--5-5-----|--12--|--7------|-8---|--5-5-----|--12--|--7--|
B|-8---|--5---6---|--13--|--8------|-8---|--5---6---|--13--|--8--|
G|-10--|--7-----7-|--14--|--9--9---|-10--|--7-----7-|--14--|--9--|
D|-10--|--7-------|--14--|--9----9-|-10--|--7-------|--14--|--9--|
A|-8---|--5-------|--12--|--7------|-8---|--5-------|--12--|--7--|
D|-----|----------|------|---------|-----|----------|------|-----|


[Link]

e|---------------------------|------------------------------|
B|---------------------------|------------------------------|
G|---------------------------|------------------------------|
D|---2---2---2-2---2-3---3---|---2---2---2---2--------------|
A|-3---3---3-----3-----5---5-|-0---0---0---0----------------|
D|---------------------------|------------------------------|


[Verse]

"Curses burning my tongue, I'm wondering if you're enough..."
e|-3--5--|-0--|-3--5--|-0--|-----------3-----|--------------------|-3--5--|-0--|-3--5--|-0--|
B|-3--6--|-1--|-3--6--|-1--|-----------3---6-|-----1-----0-----1--|-3--6--|-1--|-3--6--|-1--|
G|-5--7--|-2--|-5--7--|-2--|-----------5-----|--------------------|-5--7--|-2--|-5--7--|-2--|
D|-5--7--|-2--|-5--7--|-2--|---5---5---5-----|---2-----2-----2----|-5--7--|-2--|-5--7--|-2--|
A|-3--5--|-0--|-3--5--|-0--|-3---3---3-------|-0-----0-----0------|-3--5--|-0--|-3--5--|-0--|
D|-------|----|-------|----|-----------------|--------------------|-------|----|-------|----|

"Love how you gamble your pride..."
e|---0---3--|---------3-------|---0----3-|-----------------|
B|---0---1--|-------3---3-----|---0----1-|-------3---------|
G|---0---0--|-----5-------5---|---0----0-|-----5-----------|
D|-2---3----|---5-----------5-|-2----3---|---5-------------|
A|----------|-3---------------|----------|-3--------2------|
D|----------|-----------------|----------|-----------------|


[Chorus]

"Will you always chase me like this? Will time and space leave when we kiss?"
e|-8---|--5-5-----|--12--|--7------|-8---|--5-5-----|--12--|--7-7-7-7-7-7-7-7--|
B|-8---|--5---6---|--13--|--8------|-8---|--5---6---|--13--|--8-8-8-8-8-8-8-8--|
G|-10--|--7-----7-|--14--|--9--9---|-10--|--7-----7-|--14--|--9-9-9-9-9-9-9-9--|
D|-10--|--7-------|--14--|--9----9-|-10--|--7-------|--14--|--9-9-9-9-9-9-9-9--|
A|-8---|--5-------|--12--|--7------|-8---|--5-------|--12--|--7-7-7-7-7-7-7-7--|
D|-----|----------|------|---------|-----|----------|------|-------------------|

[Bridge]

Guitar 1:
"I was divided, my heart was so confused..."
e|-----------------|-----------------|-------------------|-------------------|
B|-----------------|-----------------|-------------------|-------------------|
G|-----------------|-----------------|-------------------|-------------------|
D|-3-3-3-3-3-3-3-3-|-0-0-0-0-0-0-0-0-|-7-7-7-7-7-7-7-7-7-|-2-2-2-2-2-2-2-2-2-| x3
A|-3-3-3-3-3-3-3-3-|-0-0-0-0-0-0-0-0-|-7-7-7-7-7-7-7-7-7-|-2-2-2-2-2-2-2-2-2-|
D|-3-3-3-3-3-3-3-3-|-0-0-0-0-0-0-0-0-|-7-7-7-7-7-7-7-7-7-|-2-2-2-2-2-2-2-2-2-|

Guitar 2:
e|-----------------|-----------------|-------------------|-------------------|
B|-13-13-13-13-----|-15-15-15-15-----|-17-17-17-17-------|-12-12-12-12-------|
G|-----------------|-----------------|-------------------|-------------------|
D|-----------------|-----------------|-------------------|-------------------| x3
A|-----------------|-----------------|-------------------|-------------------|
D|-----------------|-----------------|-------------------|-------------------|

Guitar 1:
"I wanna gamble and fall in love with you..."
e|-----------------|-----------------|-------------------|-------------------|
B|-----------------|-----------------|-------------------|-------------------|
G|-----------------|-----------------|-------------------|-------------------|
D|-3-3-3-3-3-3-3-3-|-0-0-0-0-0-0-0-0-|-7-7-7-7-7-7-7-7-7-|-2-2-2-2-2-2-2-2-2-|
A|-3-3-3-3-3-3-3-3-|-0-0-0-0-0-0-0-0-|-7-7-7-7-7-7-7-7-7-|-2-2-2-2-2-2-2-2-2-|
D|-3-3-3-3-3-3-3-3-|-0-0-0-0-0-0-0-0-|-7-7-7-7-7-7-7-7-7-|-2-2-2-2-2-2-2-2-2-|

"I hear your heartbeat, you're singing to me..."
e|-----------------|----|
B|-----------------|----|
G|-----------------|----|
D|-3-3-3-3-3-3-3-3-|-0--|
A|-3-3-3-3-3-3-3-3-|-0--|
D|-3-3-3-3-3-3-3-3-|-0--|


[Outro]

"Will you always chase me like this? Will time and space leave when we kiss?"
e|-8---|--5---|--12--|--7--|-8---|--5--|--12--|--7--|
B|-8---|--5---|--13--|--8--|-8---|--5--|--13--|--8--|
G|-10--|--7---|--14--|--9--|-10--|--7--|--14--|--9--|
D|-10--|--7---|--14--|--9--|-10--|--7--|--14--|--9--|
A|-8---|--5---|--12--|--7--|-8---|--5--|--12--|--7--|
D|-----|------|------|-----|-----|-----|------|-----|

            
            
Suggest correction
Creating personal tab
Creating personal tab
You can edit any tab online and save it as your Personal.

You can edit, replace or remove any tab part or add personal notes – all changes will be seen only by you.

Personal tabs can be accessed anytime from any device, even offline.
Learn more »
Give kudos to tab author, rate the tab!
1 2 3 4 5
comments
print report bad tab
1 comment total.
+1 reply
stealthninja898 55 Jul 26, 2016 03:00 PM

Great tab, detailed and accurate, as far as I can tell.
Definately in my top three for the Album:
1. Rot
2. Faith
3. Your'e not Alone

guest
You may want to rate the tab now too:
select rating
Wanna post a correction for this tab? Suggest correction