Oops, an error
Loading. Please wait.

Im Not Laughing tab

1,153 views 1 this week
1 commentread comment
1 2 3 4 5
x 5
add to favorites
×
Save as Personal and add changes to this tab that will be seen only by you. Learn more ›
×
You can save this tab as Personal to edit and correct it or add notes. All changes will be seen only by you. Learn more »
launch autoscroll
font size
0
reset
how to read this tab
guitar tuner
edit
Autoscroll
slow
fast
+/-
esc
set tempo
stop
Lacey Sturm - I'm Not Laughing

Tuning: Drop D
Difficulty: Intermediate
Tabbed by: notgonnadie

This is an awesome new song from Lacey Sturm's first solo album, "Life Screams". The rhythm is a bit
tricky at first, but you just need to listen to the song a few times and then you should be able to play it.
I hope you like it and be sure to check out my other tabs. I will be posting tabs for the rest of the album
soon. Enjoy!

Intro: Guitar 1
e|-------------------------------------|
B|-6-8-6---6-8-6---6-8-6---9-8-6-------|
G|-------7-------7-------7-------7-----|
D|-------------------------------------|
A|-------------------------------------|
D|-------------------------------------|

e|--------------------------------------------------------|
B|-------------------------4------------------------------|
G|--------------------------------------------------------|
D|-5-5-5-5-8-8-8-8-1-1-1-1-1-5-5-5-5-8-8-8-8-1-1-1-1-3----|
A|-5-5-5-5-8-8-8-8-1-1-1-1---5-5-5-5-8-8-8-8-1-1-1-1-3----|
D|-5-5-5-5-8-8-8-8-1-1-1-1---5-5-5-5-8-8-8-8-1-1-1-1-3----|

e|-------------------------------------------------------------|
B|-------------------------------------------------------------|
G|-------------------------------------------------------------|
D|-5-5-5-5-8-8-8-8-1-1-1-1--1-1-1-1-1-1-1-1-0-0-0-0-0-0-0-0----|
A|-5-5-5-5-8-8-8-8-1-1-1-1--1-1-1-1-1-1-1-1-0-0-0-0-0-0-0-0----|
D|-5-5-5-5-8-8-8-8-1-1-1-1--1-1-1-1-1-1-1-1-0-0-0-0-0-0-0-0----|

Intro: Guitar 2
(Play this at 0:23)
e|-------------------------------8-10--|
B|-6-8-6---6-8-6---6-8-6---9-8-6-------|
G|-------7-------5-------7-------------|
D|-------------------------------------|
A|-------------------------------------|
D|-------------------------------------|

Verse 1
(start at 0:41)
e|-------------------------------------|
B|-------------------------------------|
G|-------------------------------------|
D|-------------------------------------|
A|---------1-3-------------------------|
D|-10\-1-3-----------------------------|

"And none of you know her anyway..."
e|--------------------------------------------------------------------------------------------------------|
B|--------------------------------------------------------------------------------------------------------|
G|--------------------------------------------------------------------------------------------------------|
D|-5-5-5-5-3-3-3-3-1-1-3-0-5-5-5-5-3-3-3-3-8-8-8-8-0--5-5-5-5-3-3-3-3-1-1-3-0-1-1-1-1-1-1-0-0-0-0-3-3-3-3-|
A|-5-5-5-5-3-3-3-3-1-1-3-0-5-5-5-5-3-3-3-3-8-8-8-8-0--5-5-5-5-3-3-3-3-1-1-3-0-1-1-1-1-1-1-0-0-0-0-3-3-3-3-|
D|-5-5-5-5-3-3-3-3-1-1-3-0-5-5-5-5-3-3-3-3-8-8-8-8-0--5-5-5-5-3-3-3-3-1-1-3-0-1-1-1-1-1-1-0-0-0-0-3-3-3-3-|

Chorus
e|--------------------------------------------------------|
B|-------------------------4------------------------------|
G|--------------------------------------------------------|
D|-5-5-5-5-8-8-8-8-1-1-1-1-1-5-5-5-5-8-8-8-8-1-1-1-1-3----|
A|-5-5-5-5-8-8-8-8-1-1-1-1---5-5-5-5-8-8-8-8-1-1-1-1-3----|
D|-5-5-5-5-8-8-8-8-1-1-1-1---5-5-5-5-8-8-8-8-1-1-1-1-3----|

e|----------------------------------------------------------|
B|-------------------------4--------------------------------|
G|----------------------------------------------------------|
D|-5-5-5-5-8-8-8-8-1-1-1-1-1-1-1-1-1-1-1-1-1-0-0-0-0-0-3----|
A|-5-5-5-5-8-8-8-8-1-1-1-1---1-1-1-1-1-1-1-1-0-0-0-0-0-3----|
D|-5-5-5-5-8-8-8-8-1-1-1-1---1-1-1-1-1-1-1-1-0-0-0-0-0-3----|

Post-Chorus
e|----------------------------------------|
B|-6-8-6---6-8-6---6-8-6---9-8-6----------|
G|-------7-------5-------7-------5-7brb---|
D|----------------------------------------|
A|----------------------------------------|
D|----------------------------------------|

Verse 2 
"is your insecure loud mouth..."
e|-----------------10-10-10b--|
B|----------------------------|
G|-7-5-7-5-7-5-7-5------------|
D|----------------------------|
A|----------------------------|
D|----------------------------|

e|-------------------------------------|
B|-------------------------------------|
G|-------------------------------------|
D|-------------------------------------|
A|---------1-3-------------------------|
D|-10\-1-3-----------------------------|

"And all you know is that everyone..."
e|--------------------------------------------------------------------------------------------------------|
B|--------------------------------------------------------------------------------------------------------|
G|--------------------------------------------------------------------------------------------------------|
D|-5-5-5-5-3-3-3-3-1-1-3-0-5-5-5-5-3-3-3-3-8-8-8-8-0--5-5-5-5-3-3-3-3-1-1-3-0-1-1-1-1-1-1-0-0-0-0-3-3-3-3-|
A|-5-5-5-5-3-3-3-3-1-1-3-0-5-5-5-5-3-3-3-3-8-8-8-8-0--5-5-5-5-3-3-3-3-1-1-3-0-1-1-1-1-1-1-0-0-0-0-3-3-3-3-|
D|-5-5-5-5-3-3-3-3-1-1-3-0-5-5-5-5-3-3-3-3-8-8-8-8-0--5-5-5-5-3-3-3-3-1-1-3-0-1-1-1-1-1-1-0-0-0-0-3-3-3-3-|

Chorus
e|--------------------------------------------------------|
B|-------------------------4------------------------------|
G|--------------------------------------------------------|
D|-5-5-5-5-8-8-8-8-1-1-1-1-1-5-5-5-5-8-8-8-8-1-1-1-1-3----|
A|-5-5-5-5-8-8-8-8-1-1-1-1---5-5-5-5-8-8-8-8-1-1-1-1-3----|
D|-5-5-5-5-8-8-8-8-1-1-1-1---5-5-5-5-8-8-8-8-1-1-1-1-3----|

e|----------------------------------------------------------|
B|-------------------------4--------------------------------|
G|----------------------------------------------------------|
D|-5-5-5-5-8-8-8-8-1-1-1-1-1-1-1-1-1-1-1-1-1-0-0-0-0-0-3----|
A|-5-5-5-5-8-8-8-8-1-1-1-1---1-1-1-1-1-1-1-1-0-0-0-0-0-3----|
D|-5-5-5-5-8-8-8-8-1-1-1-1---1-1-1-1-1-1-1-1-0-0-0-0-0-3----|

e|--------------------------------------------------------|
B|-------------------------4------------------------------|
G|--------------------------------------------------------|
D|-5-5-5-5-8-8-8-8-1-1-1-1-1-5-5-5-5-8-8-8-8-1-1-1-1-3----|
A|-5-5-5-5-8-8-8-8-1-1-1-1---5-5-5-5-8-8-8-8-1-1-1-1-3----|
D|-5-5-5-5-8-8-8-8-1-1-1-1---5-5-5-5-8-8-8-8-1-1-1-1-3----|

e|----------------------------------------------------------|
B|-------------------------4--------------------------------|
G|----------------------------------------------------------|
D|-5-5-5-5-8-8-8-8-1-1-1-1-1-1-1-1-1-1-1-1-1-0-0-0-0-0-3----|
A|-5-5-5-5-8-8-8-8-1-1-1-1---1-1-1-1-1-1-1-1-0-0-0-0-0-3----|
D|-5-5-5-5-8-8-8-8-1-1-1-1---1-1-1-1-1-1-1-1-0-0-0-0-0-3----|


Solo
e|--------------------------------------------------------------10-|
B|-----------------------6-------------------------------6---------|
G|---------5---------------7-5-5h7-5--------5---------------7-5----|
D|-2/5-8-5---8-5---5-8-5------------2/5-8-5---8-5---5-8-5----------|
A|-----------------------------------------------------------------|
D|-----------------------------------------------------------------|

e|----------------------------------------------------------------------------------------------|
B|------------------------------18--------------------------------------------18----------------|
G|-----------17--------------------19-17-17h19-17----------17--------------------20-17----------|
D|--17-20-17----20-17--17-20-17-------------------17-20-17----20-17--17-20-17----------20-17----|
A|-------------------------------------------------------------------------------------------20-|
D|----------------------------------------------------------------------------------------------|

e|--------------------18----------------------------------18----------------|
B|--------------18-20----20-18----------------------18-20----20-18----------|
G|--------17-19----------------19-17----------17-19----------------19-17----|
D|--17-20----------------------------20-17-20----------------------------20-|
A|--------------------------------------------------------------------------|
D|--------------------------------------------------------------------------|

Quiet Chorus
e|--------------------------------------------------------------------------------------------|
B|--------------------------------------------------------------------------------------------|
G|--------------------------------------------------------------------------------------------|
D|---------------------------------------------------------------------------------pickscrape-|
A|---------------------------------------------------------------------------------pickscrape-|
D|-5-5-5-5-8-8-8-8-1-1-1-1-3--5-5-5-5-8-8-8-8-1-1-1-1-3--5-5-5-5-8-8-8-8-1-1-1-1-3-pickscrape-|

Chorus
e|--------------------------------------------------------|
B|-------------------------4------------------------------|
G|--------------------------------------------------------|
D|-5-5-5-5-8-8-8-8-1-1-1-1-1-5-5-5-5-8-8-8-8-1-1-1-1-3----|
A|-5-5-5-5-8-8-8-8-1-1-1-1---5-5-5-5-8-8-8-8-1-1-1-1-3----|
D|-5-5-5-5-8-8-8-8-1-1-1-1---5-5-5-5-8-8-8-8-1-1-1-1-3----|

e|----------------------------------------------------------|
B|-------------------------4--------------------------------|
G|----------------------------------------------------------|
D|-5-5-5-5-8-8-8-8-1-1-1-1-1-1-1-1-1-1-1-1-1-0-0-0-0-0-3----|
A|-5-5-5-5-8-8-8-8-1-1-1-1---1-1-1-1-1-1-1-1-0-0-0-0-0-3----|
D|-5-5-5-5-8-8-8-8-1-1-1-1---1-1-1-1-1-1-1-1-0-0-0-0-0-3----|

Outro
e|--------------------------------------------------------|
B|-------------------------4------------------------------|
G|--------------------------------------------------------|
D|-5-5-5-5-8-8-8-8-1-1-1-1-1-5-5-5-5-8-8-8-8-1-1-1-1-3----|
A|-5-5-5-5-8-8-8-8-1-1-1-1---5-5-5-5-8-8-8-8-1-1-1-1-3----|
D|-5-5-5-5-8-8-8-8-1-1-1-1---5-5-5-5-8-8-8-8-1-1-1-1-3----|

e|--------------------------------------------------------|
B|--------------------------------------------------------|
G|--------------------------------------------------------|
D|-5-5-5-5-8-8-8-8-1-1-1-1--1-1-1-1-1-1-1-1-6-5-3-1-0-----|
A|-5-5-5-5-8-8-8-8-1-1-1-1--1-1-1-1-1-1-1-1-6-5-3-1-0-----|
D|-5-5-5-5-8-8-8-8-1-1-1-1--1-1-1-1-1-1-1-1-6-5-3-1-0-----|

That's it! Thanks for checking out my tab, if you have any comments or corrections feel free to leave them in
the comments box below. Hope you enjoyed, have fun, and God bless!

************************************

| /   slide up
| \   slide down
| h   hammer-on
| p   pull-off
| ~   vibrato
| +   harmonic
| x   Mute note
| b   Bend
| pb  Pre-bend
| br  Bend release
| pbr Pre-bend release
| brb Bend release bend

************************************
Suggest correction
Creating personal tab
Creating personal tab
You can edit any tab online and save it as your Personal.

You can edit, replace or remove any tab part or add personal notes – all changes will be seen only by you.

Personal tabs can be accessed anytime from any device, even offline.
Learn more »
comments
print report bad tab
1 comment total.
0 reply
coolguitars77 12 Jul 31, 2016 03:40 AM

I played this tab through a few times to get comfortable with it, and found things i would've done differently. I'm mainly a rhythm player so I have yet to play the solo, but here's what I changed so far. They're very minor things and basically the same notes.

Chorus
e|---------------------------
B|---------------------------
G|-------------------------7-
D|-5-5-5-5-8-8-8-8-1-1-1-1---
A|-5-5-5-5-8-8-8-8-1-1-1-1-5-
D|-5-5-5-5-8-8-8-8-1-1-1-1---

And this in the Verse 2 2nd part

e|-------------------------------------|
B|-------------------------------------|
G|-------------------------------------|
D|-------------------------------------|
A|---------1-3-------------------------|
D|--3\-1-3-----------------------------|

If you like my ideas feel free to borrow them. Cya :)

guest
You may want to rate the tab now too:
select rating
Wanna post a correction for this tab? Suggest correction