Oops, an error
Loading. Please wait.
We have an official Closer tab made by UG professional guitarists. Check out the tab »
×
379 views 1 this week
1 commentread comment
1 2 3 4 5
2 more votes to show rating
add to favorites
×
Save as Personal and add changes to this tab that will be seen only by you. Learn more ›
×
You can save this tab as Personal to edit and correct it or add notes. All changes will be seen only by you. Learn more »
launch autoscroll
font size
0
reset
how to read this tab
guitar tuner
backing track
0:00
0:00
edit
Autoscroll
slow
fast
+/-
esc
set tempo
stop
Intro: e|--------------------|
       B|--------------------|
       G|--------------------| X4 (Also a bass intro, but tabbed for main guitar)
       D|-----5-5-3-3--------|
       A|----------------235-|
       E|-5-5---------135----|

       e|---------------------------------|
       B|---------------------------------|
       G|-----------7-7-7-7-7-7-7---------| X4
       D|-7-7-7-7-7-7-7-7-7-7-7-7-5-5-5-5-|
       A|-7-7-7-7-7-5-5-5-5-5-5-5-5-5-5-5-|
       E|-5-5-5-5-5---------------3-3-3-3-|

Verse: e|-------------------------------|
       B|-------------------------------|
       G|------x7-x5-555------x7-x5-555-| X3.5 (the second part is not played on the 4th time)
       D|-7-x5-x7-x5-555-x7-5-x7-x5-555-|
       A|-7-x5-x5-x3-333-x7-5-x5-x3-333-|
       E|-5-x3-----------x5-3-----------|

             Want to get closer, in too deep

             Where there is something I 

             wish for I'll go through. Want to get 

             closer into you No 

             hell to discover I've got it 

             all inside myself

             Salvation you have preached is gone

       e|--------------------|
       B|--------------------|
       G|--------------------|
       D|-7-7-7-7-5-5-5-5-3~-|
       A|-7-7-7-7-5-5-5-5-3~-|
       E|-5-5-5-5-3-3-3-3-1~-|

          No way you can't turn it around

Chorus: e|---------------------------------|
        B|---------------------------------|
        G|-----------7-7-7-7-7-7-7---------| X4
        D|-7-7-7-7-7-7-7-7-7-7-7-7-5-5-5-5-|
        A|-7-7-7-7-7-5-5-5-5-5-5-5-5-5-5-5-|
        E|-5-5-5-5-5---------------3-3-3-3-|

           Looking for a higher ground (higher)

           Searching for this something missed (missed) before

           From a higher ground (higher)

           Will I fall in a right direction? (searching for more)

Pre-Verse: e|---------------------------------|
           B|---------------------------------|
           G|-----------7-7-7-7-7-7-7---------| X4
           D|-7-7-7-7-7-7-7-7-7-7-7-7-5-5-5-5-|
           A|-7-7-7-7-7-5-5-5-5-5-5-5-5-5-5-5-|
           E|-5-5-5-5-5---------------3-3-3-3-|

Verse: e|-------------------------------|
       B|-------------------------------|
       G|------x7-x5-555------x7-x5-555-| X3.5 (the second part is not played on the 4th time)
       D|-7-x5-x7-x5-555-x7-5-x7-x5-555-|
       A|-7-x5-x5-x3-333-x7-5-x5-x3-333-|
       E|-5-x3-----------x5-3-----------|

             Falling apart, there's nothing real

             That will convince me to 

             change but I'll go through

             Want to get closer into you

             No hell to discover There is just 

             nothing to betray

             Salvation you have preached is gone

       e|--------------------|
       B|--------------------|
       G|--------------------|
       D|-7-7-7-7-5-5-5-5-3~-|
       A|-7-7-7-7-5-5-5-5-3~-|
       E|-5-5-5-5-3-3-3-3-1~-|

          No way you can't turn it around

Chorus: e|---------------------------------|
        B|---------------------------------|
        G|-----------7-7-7-7-7-7-7---------| X4
        D|-7-7-7-7-7-7-7-7-7-7-7-7-5-5-5-5-|
        A|-7-7-7-7-7-5-5-5-5-5-5-5-5-5-5-5-|
        E|-5-5-5-5-5---------------3-3-3-3-|

           Looking for a higher ground (higher)

           Searching for this something missed (missed) before

           From a higher ground (higher)

           Will I fall in a right direction? (searching for more)

Solo: e|------------------------------------------|
      B|------------------------------------------|
      G|------------9------------9------------9---| X4
      D|-7-9-(10)-7---7-9-(10)-7---7-9-(10)-7---7-|
      A|------------------------------------------|
      E|------------------------------------------|

         Looking for a higher ground (higher)

         Searching for this something missed (missed) before

         From a higher ground (higher)

         Will I fall in a right direction? (searching for more)

Bridge: e|----|
        B|----|
        G|----|
        D|-7~-|
        A|-7~-|
        E|-5~-|

           Looking for a higher ground

           Searching for this something missed before

           From a higher ground (higher)

           Will I fall in a right direction? (searching for more)

Outro: e|------------------------------------------|
       B|------------------------------------------|
       G|------------9------------9------------9---| X4
       D|-7-9-(10)-7---7-9-(10)-7---7-9-(10)-7---7-|
       A|------------------------------------------|
       E|------------------------------------------|

          Looking for a higher ground (higher)

          Searching for this something missed (missed) before

          From a higher ground (higher)

          Will I fall in a right direction? (searching for more)

Outro Bass (transcribed for guitar): e|--------------------|
                                     B|--------------------|
                                     G|--------------------| X4
                                     D|-----5-5-3-3--------|
                                     A|----------------235-|
                                     E|-5-5---------135----|

Good simple solos and bass moments equals a memorable song. The verses are placed the way they are by the
effect of where the emphasis is on the lyrics and the pausing and spacing. One half of the tab for the verses
is played on each break in the lyrics.

            
            
Suggest correction
Creating personal tab
Creating personal tab
You can edit any tab online and save it as your Personal.

You can edit, replace or remove any tab part or add personal notes – all changes will be seen only by you.

Personal tabs can be accessed anytime from any device, even offline.
Learn more »
Give kudos to tab author, rate the tab!
1 2 3 4 5
comments
print report bad tab
1 comment total.
0 reply
the_tabber_b 10 Jan 23, 2016 06:09 PM

didn't like this contribution

guest
You may want to rate the tab now too:
select rating
Wanna post a correction for this tab? Suggest correction