Oops, an error
Loading. Please wait.

Delirium tab

version 2
version 2

Whole song

  • Tabbed for 7-string guitar as played by the band, ... Show more
133 views 15 this week
no commentswrite comment
1 2 3 4 5
1 last vote to show rating
add to favorites
×
Save as Personal and add changes to this tab that will be seen only by you. Learn more ›
×
You can save this tab as Personal to edit and correct it or add notes. All changes will be seen only by you. Learn more »
launch autoscroll
font size
0
reset
how to read this tab
guitar tuner
edit
Autoscroll
slow
fast
+/-
esc
set tempo
stop
Author
NSpen1 [tm] 8,378
About this tab version
Tabbed for 7-string guitar as played by the band, all parts spaced according to rhythm and put correctly into bars, octaves part on last chorus included. Was this info helpful? Yes No
  [Intro]
  (let ring)
e|---------14-----------|--14------------14----|---------14-----------|--14------------14-15-|
B|-----14-------14------|-------14----14----14-|-----14-------14------|-------14----14-------|
G|-16--------------16---|----------16----------|-16--------------16---|----------16----------|
D|----------------------|----------------------|----------------------|----------------------| x2
A|----------------------|----------------------|----------------------|----------------------|
E|----------------------|----------------------|----------------------|----------------------|
B|----------------------|----------------------|----------------------|----------------------|


  [Chorus]

e|----------------------|------------------------|----------------------|------------------------|
B|----------------------|------------------------|----------------------|------------------------|
G|----------------------|------------------------|----------------------|------------------------|
D|-5-------2------------|------------------------|-5--------------------|------------------------|
A|-5-------2-------2----|(2)--------2-2--2-2-2---|-5-------6---------2--|(2)--------2-2--2-2-2---|
E|-3-------0-------2----|(2)--------2-2--2-2-2---|-3-------6---------2--|(2)--------2-2--2-2-2---|
B|-----------------0----|(0)--------0-0--0-0-0---|---------4---------0--|(0)--------0-0--0-0-0---|

e|----------------------|------------------------|----------------------|-------------------------|
B|----------------------|------------------------|----------------------|-------------------------|
G|----------------------|------------------------|----------------------|-------------------------|
D|-5-------2------------|------------------------|-5--------------------|-------------------------|
A|-5-------2-------2----|(2)--------2-2--2-2-2---|-5-------6---------2--|(2)--------2-2-----------|
E|-3-------0-------2----|(2)--------2-2--2-2-2---|-3-------6---------2--|(2)--------2-2-/7--7-7-7-|
B|-----------------0----|(0)--------0-0--0-0-0---|---------4---------0--|(0)--------0-0-----------|


  [Verse]

e|---------------------------------|---------------------------------|
B|---------------------------------|---------------------------------|
G|---------------------------------|---------------------------------|
D|---------------------------------|---------------------------------|
A|---------------------------------|---------------------------------|
E|-7-7-7-7-7-7---------------------|-------------------------5-5-5-5-|
B|-------------8-8-8-8-8-8-8-8-8-8-|-5-5-5-5-5-5-8-8-8-8-8-8---------|
   P.M.-------------------------------------------------------------|

e|---------------------------------|---------------------------------|
B|---------------------------------|---------------------------------|
G|---------------------------------|---------------------------------|
D|---------------------------------|---------------------------------| x2
A|---------------------------------|-7-7-7-7-7-7-------------5-5-5-5-|
E|-7-7-7-7-7-7---------------------|---------------------------------|
B|-------------8-8-8-8-8-8-8-8-8-8-|-------------8-8-8-8-8-8---------|
   P.M.-------------------------------------------------------------|

e|---------------------------------|---------------------------------|
B|---------------------------------|---------------------------------|
G|---------------------------------|---------------------------------|
D|---------------------------------|-------------5-5-4-4-4-4-4-4-4-4-|
A|---------------------------------|-7-7-7-7-7-7---------------------|
E|-7-7-7-7-7-7---------------------|---------------------------------|
B|-------------8-8-8-8-8-8-8-8-8-8-|---------------------------------|
   P.M.---------------------------------------------|


  [Chorus]

e|----------------------|------------------------|----------------------|------------------------|
B|----------------------|------------------------|----------------------|------------------------|
G|----------------------|------------------------|----------------------|------------------------|
D|-5-------2------------|------------------------|-5--------------------|------------------------|
A|-5-------2-------2----|(2)--------2-2--2-2-2---|-5-------6---------2--|(2)--------2-2--2-2-2---|
E|-3-------0-------2----|(2)--------2-2--2-2-2---|-3-------6---------2--|(2)--------2-2--2-2-2---|
B|-----------------0----|(0)--------0-0--0-0-0---|---------4---------0--|(0)--------0-0--0-0-0---|

e|----------------------|------------------------|----------------------|-------------------------|
B|----------------------|------------------------|----------------------|-------------------------|
G|----------------------|------------------------|----------------------|-------------------------|
D|-5-------2------------|------------------------|-5--------------------|-------------------------|
A|-5-------2-------2----|(2)--------2-2--2-2-2---|-5-------6---------2--|(2)--------2-2-----------|
E|-3-------0-------2----|(2)--------2-2--2-2-2---|-3-------6---------2--|(2)--------2-2-/7--7-7-7-|
B|-----------------0----|(0)--------0-0--0-0-0---|---------4---------0--|(0)--------0-0-----------|


  [Verse]

e|---------------------------------|---------------------------------|
B|---------------------------------|---------------------------------|
G|---------------------------------|---------------------------------|
D|---------------------------------|---------------------------------|
A|---------------------------------|---------------------------------|
E|-7-7-7-7-7-7---------------------|-------------------------5-5-5-5-|
B|-------------8-8-8-8-8-8-8-8-8-8-|-5-5-5-5-5-5-8-8-8-8-8-8---------|
   P.M.-------------------------------------------------------------|

e|---------------------------------|---------------------------------|
B|---------------------------------|---------------------------------|
G|---------------------------------|---------------------------------|
D|---------------------------------|---------------------------------| x2
A|---------------------------------|-7-7-7-7-7-7-------------5-5-5-5-|
E|-7-7-7-7-7-7---------------------|---------------------------------|
B|-------------8-8-8-8-8-8-8-8-8-8-|-------------8-8-8-8-8-8---------|
   P.M.-------------------------------------------------------------|

e|---------------------------------|---------------------------------|-------------------|
B|---------------------------------|---------------------------------|-------------------|
G|---------------------------------|---------------------------------|-------------------|
D|---------------------------------|-------------5-5-4-4-4-4-4-4-4-4-|-4-----------------|
A|---------------------------------|-7-7-7-7-7-7---------------------|-0-----------------|
E|-7-7-7-7-7-7---------------------|---------------------------------|-------------------|
B|-------------8-8-8-8-8-8-8-8-8-8-|---------------------------------|-------------------|
   P.M.---------------------------------------------|


  [Chorus]

e|----------------------|------------------------|----------------------|------------------------|
B|----------------------|------------------------|----------------------|------------------------|
G|----------------------|------------------------|----------------------|------------------------|
D|-5-------2------------|------------------------|-5--------------------|------------------------|
A|-5-------2-------2----|(2)--------2-2--2-2-2---|-5-------6---------2--|(2)--------2-2--2-2-2---|
E|-3-------0-------2----|(2)--------2-2--2-2-2---|-3-------6---------2--|(2)--------2-2--2-2-2---|
B|-----------------0----|(0)--------0-0--0-0-0---|---------4---------0--|(0)--------0-0--0-0-0---|

e|----------------------|------------------------|----------------------|-------------------------|
B|----------------------|------------------------|----------------------|-------------------------|
G|----------------------|------------------------|----------------------|-------------------------|
D|-5-------2------------|------------------------|-5--------------------|-------------------------|
A|-5-------2-------2----|(2)--------2-2--2-2-2---|-5-------6---------2--|(2)--------2-2-----------|
E|-3-------0-------2----|(2)--------2-2--2-2-2---|-3-------6---------2--|(2)--------2-2-/7--7-7-7-|
B|-----------------0----|(0)--------0-0--0-0-0---|---------4---------0--|(0)--------0-0-----------|


  [Bridge]
                                 .
e|---------------------------------|----------------------------|
B|---------------------------------|----------------------------|
G|---------------------------------|----------------------------|
D|---------------------------------|----------------------------|  x3
A|---------------------------------|----------------------------|
E|---------------------------------|----------------------------|
B|-0-0-0-0-----0-0-0-0-----0-0-0-0-|--0-0---------0-1-b~~~~~~~--|

                                 .
e|---------------------------------|----------------------------|
B|---------------------------------|----------------------------|
G|---------------------------------|----------------------------|
D|---------------------------------|----------------------------|
A|---------------------------------|----------------------------|
E|---------------------------------|----------------------------|
B|-000000000---000000000---0000000-|--0-0---------0-1-b~~~~~~~--|
    (32nds)     (32nds)    (32nds)


  [Chorus]

e|----------------------|------------------------|----------------------|------------------------|
B|----------------------|------------------------|----------------------|------------------------|
G|----------------------|------------------------|----------------------|------------------------|
D|-5-------2------------|------------------------|-5--------------------|------------------------|
A|-5-------2-------2----|(2)--------2-2--2-2-2---|-5-------6---------2--|(2)--------2-2--2-2-2---|
E|-3-------0-------2----|(2)--------2-2--2-2-2---|-3-------6---------2--|(2)--------2-2--2-2-2---|
B|-----------------0----|(0)--------0-0--0-0-0---|---------4---------0--|(0)--------0-0--0-0-0---|

e|----------------------|------------------------|----------------------|-------------------------|
B|----------------------|------------------------|----------------------|-------------------------|
G|----------------------|------------------------|----------------------|-------------------------|
D|-5-------2------------|------------------------|-5--------------------|-------------------------|
A|-5-------2-------2----|(2)--------2-2--2-2-2---|-5-------6---------2--|(2)--------2-2-----------|
E|-3-------0-------2----|(2)--------2-2--2-2-2---|-3-------6---------2--|(2)--------2-2-/7--7-7-7-|
B|-----------------0----|(0)--------0-0--0-0-0---|---------4---------0--|(0)--------0-0-----------|

2nd guitar part (low in the mix)

e|-----------------------|---------------------------------|-----------------------|
B|-----------------------|---------------------------------|-----------------------|
G|-------------------6-6-|-6s7-7-7-7s9-9-9-9-9-9-9-9-9-9-9-|-------------------6-6-|
D|-----------------------|---------------------------------|-----------------------|
A|-------------------4-4-|-4s5-5-5-5s7-7-7-7-7-7-7-7-7-7-7-|-------------------4-4-|
E|-----------------------|---------------------------------|-----------------------|
B|-----------------------|---------------------------------|-----------------------|

e|---------------------------------|-----------------------|---------------------------------|
B|---------------------------------|-----------------------|---------------------------------|
G|-6s7-7-7-7s9-9-9-9s6-6-6-6-6-6-6-|-------------------6-6-|-6s7-7-7-7s9-9-9-9-9-9-9-9-9-9-9-|
D|---------------------------------|-----------------------|---------------------------------|
A|-4s5-5-5-5s7-7-7-7s4-4-4-4-4-4-4-|-------------------4-4-|-4s5-5-5-5s7-7-7-7-7-7-7-7-7-7-7-|
E|---------------------------------|-----------------------|---------------------------------|
B|---------------------------------|-----------------------|---------------------------------|

e|-----------------------|----------------------------------------|
B|-----------------------|----------------------------------------|
G|-------------------6-6-|-6s7-7-7-7s9-9-9-9s11-11-11-11-11-11-11-|
D|-----------------------|----------------------------------------|
A|-------------------4-4-|-4s5-5-5-5s7-7-7-7s9--9--9--9--9--9--9--|
E|-----------------------|----------------------------------------|
B|-----------------------|----------------------------------------|

  [Extended chorus]

e|----------------------|---------------------------|----------------------|---------------------------|
B|----------------------|---------------------------|----------------------|---------------------------|
G|-------------------4--|(4)----4-------------------|-------------------4--|(4)----4-------------------|
D|-5-------2---------4--|(4)----4-------------------|-5-----------------4--|(4)----4-------------------|
A|-5-------2---------2--|(2)----2-2-2--2-2--2-2-2---|-5-------6---------2--|(2)----2-2-2--2-2--2-2-2---|
E|-3-------0------------|---------2-2--2-2--2-2-2---|-3-------6------------|---------2-2--2-2--2-2-2---|
B|----------------------|---------0-0--0-0--0-0-0---|---------4------------|---------0-0--0-0--0-0-0---|

e|----------------------|---------------------------|----------------------|---------------------|
B|----------------------|---------------------------|----------------------|---------------------|
G|-------------------4--|(4)----4-------------------|----------------------|---------------------|
D|-5-------2---------4--|(4)----4-------------------|-5--------------------|---------------------|
A|-5-------2---------2--|(2)----2-2-2--2-2--2-2-2---|-5-------6---------2--|(2)------------------|
E|-3-------0------------|---------2-2--2-2--2-2-2---|-3-------6---------2--|(2)------------------|
B|----------------------|---------0-0--0-0--0-0-0---|---------4---------0--|(0)------------------|

2nd guitar part (louder)

e|-----------------------|---------------------------------|-----------------------|
B|-----------------------|---------------------------------|-----------------------|
G|/14------11--------6-6-|-6s7-7-7-7s9-9-9-9s6-6-6-6-6-6-6-|/14------11--------6-6-|
D|-----------------------|---------------------------------|-----------------------|
A|/12------9---------4-4-|-4s5-5-5-5s7-7-7-7s4-4-4-4-4-4-4-|/12------9---------4-4-|
E|-----------------------|---------------------------------|-----------------------|
B|-----------------------|---------------------------------|-----------------------|

e|---------------------------------|-----------------------|---------------------------------|
B|---------------------------------|-----------------------|---------------------------------|
G|-6s7-7-7-7s4-4-4-4-4-4-4-4-4-4-4-|/14------11--------6-6-|-6s7-7-7-7s9-9-9-9s6-6-6-6-6-6-6-|
D|---------------------------------|-----------------------|---------------------------------|
A|-4s5-5-5-5s2-2-2-2-2-2-2-2-2-2-2-|/12------9---------4-4-|-4s5-5-5-5s7-7-7-7s4-4-4-4-4-4-4-|
E|---------------------------------|-----------------------|---------------------------------|
B|---------------------------------|-----------------------|---------------------------------|


******************************

| /     Slide up into note
| P.M.  Palm mute
| .     Staccato
| b~~~  Bend (slowly)
| s     Legato slide

******************************
Suggest correction
Creating personal tab
Creating personal tab
You can edit any tab online and save it as your Personal.

You can edit, replace or remove any tab part or add personal notes – all changes will be seen only by you.

Personal tabs can be accessed anytime from any device, even offline.
Learn more »
Give kudos to tab author, rate the tab!
1 2 3 4 5
comments
print report bad tab
guest
You may want to rate the tab now too:
select rating
Wanna post a correction for this tab? Suggest correction