Oops, an error
Loading. Please wait.

Enjoy The Silence Bass Tab

version 4
version 4

Whole song

Interactive

247 views 3 this week
no commentswrite comment
1 2 3 4 5
2 more votes to show rating
add to favorites
launch autoscroll
font size
0
reset
guitar tuner
Autoscroll
slow
fast
+/-
esc
set tempo
stop
Help us to improve Ultimate-Guitar.com Take our survey!
×
Author
Tuning
D A D G B E
-------------------------------------------------------------------------------
                             ENJOY THE SILENCE - Lacuna Coil
-------------------------------------------------------------------------------
Tabbed by: Nicko


Tuning: Drop D


   Keyboard Intro (0:00)
G |---------------|---------------|---------------|---------------|
D |---------------|---------------|---------------|---------------|
A |---------------|---------------|---------------|---------------|     
D |---------------|---------------|---------------|---------------|


  Intro Riff (0:17)
G|-------------------|-------------------|------------------|-------------------|
D|-------------------|-------------------|------------------|-------------------|
A|-------------------|-------------------|------------------|-------------------|       x2
D|--2-2-2-2-2-2-2-2--|--5-5-5-5-5-5-5-5--|-9-9-9-9-9-9-9-9--|--7-7-7-7-7-7-7-7--|





  Verse 1 (0:33)
G|-------|-------|-------|-------|
D|-------|-------|-------|-------|
A|-------|-------|-------|-------|      x2
D|--9----|--0----|--5----|--5----|





  Chorus 1 (0:50)
G|-------------------|-------------------|------------------|-------------------
D|-------------------|-------------------|------------------|-------------------
A|-------------------|-------------------|------------------|-------------------
D|--2-2-2-2-2-2-2-2--|--5-5-5-5-5-5-5-5--|-9-9-9-9-9-9-9-9--|--7-7-7-7-7-7-7-7--


-------------------|-------------------|-------------------|-------------------|-------------------|
-------------------|-------------------|-------------------|-------------------|-------------------|
-------------------|-------------------|-------------------|-------------------|-------------------|
--2-2-2-2-2-2-2-2--|--5-5-5-5-5-5-5-5--|--9-9-9-9-9-9-9-9--|--8-8-8-8-8-8-8-8--|--8-8-8-8-8-8-8-8--|






  Pre-Verse (1:09)            Verse 2 (1:26)
G|-------|-------|          G|-------|-------|-------|-------|
D|-------|-------|          D|-------|-------|-------|-------|
A|-------|-------|  x4      A|-------|-------|-------|-------|  x2
D|--9----|--0----|          D|--9----|--0----|--5----|--5----|





  Chorus 2 (1:44)
G|-------------------|-------------------|------------------|-------------------
D|-------------------|-------------------|------------------|-------------------
A|-------------------|-------------------|------------------|-------------------
D|--2-2-2-2-2-2-2-2--|--5-5-5-5-5-5-5-5--|-9-9-9-9-9-9-9-9--|--7-7-7-7-7-7-7-7--


-------------------|-------------------|-------------------|-------------------|-------------------|
-------------------|-------------------|-------------------|-------------------|-------------------|
-------------------|-------------------|-------------------|-------------------|-------------------|
--2-2-2-2-2-2-2-2--|--5-5-5-5-5-5-5-5--|--9-9-9-9-9-9-9-9--|--8-8-8-8-8-8-8-8--|--8-8-8-8-8-8-8-8--|





  Bridge (2:03)
G|-------------------|-------------------|------------------|-------------------|
D|-------------------|-------------------|------------------|-------------------|
A|-------------------|-------------------|------------------|-------------------|       x2
D|--2-2-2-2-2-2-2-2--|--5-5-5-5-5-5-5-5--|-9-9-9-9-9-9-9-9--|--7-7-7-7-7-7-7-7--|





  Pre-Chorus (optional) (2:20)
G|-------|-------|-------|-------|      |-------|-------|-------|-------|
D|-------|-------|-------|-------|      |-------|-------|-------|-------|
A|-------|-------|-------|-------|      |-------|-------|-------|-------|
D|--2----|--5----|--9----|--7----|      |--2----|--5----|--9----|--8----|





  Chorus 3 (2:37)
G|-------------------|-------------------|------------------|-------------------
D|-------------------|-------------------|------------------|-------------------
A|-------------------|-------------------|------------------|-------------------
D|--2-2-2-2-2-2-2-2--|--5-5-5-5-5-5-5-5--|-9-9-9-9-9-9-9-9--|--7-7-7-7-7-7-7-7--


-------------------|-------------------|-------------------|-------------------|-------------------|
-------------------|-------------------|-------------------|-------------------|-------------------|
-------------------|-------------------|-------------------|-------------------|-------------------|
--2-2-2-2-2-2-2-2--|--5-5-5-5-5-5-5-5--|--9-9-9-9-9-9-9-9--|--8-8-8-8-8-8-8-8--|--8-8-8-8-8-8-8-8--|





  Outro (2:56)
G|-------------------|-------------------|------------------|-------------------|
D|-------------------|-------------------|------------------|-------------------|
A|-------------------|-------------------|------------------|-------------------|       x4
D|--2-2-2-2-2-2-2-2--|--5-5-5-5-5-5-5-5--|-9-9-9-9-9-9-9-9--|--7-7-7-7-7-7-7-7--|



  Fading out.... (3:30)
G|----------------------||
D|----------------------||
A|----------------------||      
D|--2----5----9----7----||
Suggest correction
Give kudos to tab author, rate the tab!
1 2 3 4 5
comments
print report bad tab
guest
You may want to rate the tab now too:
select rating
Wanna post a correction for this tab? Suggest correction