Oops, an error
Loading. Please wait.

Fragile Tab

version 1
version 1

Intro

Whole song

Interactive

613 views 1 this week
no commentswrite comment
1 2 3 4 5
please rate
add to favorites
launch autoscroll
font size
0
reset
how to read this tab
guitar tuner
Autoscroll
slow
fast
+/-
esc
set tempo
stop
Help us to improve Ultimate-Guitar.com Take our survey!
×
                      Fragile                                     


                     Lacuna Coil

All I got is the intro . . .



Biazzi
     E  E  S  S E  E  E  S  S E     E  E  S  S E  E  E  S  S E   
E||------------------------------|------------------------------|
B||------------------------------|------------------------------|
G||------------------------------|------------------------------|
D||------------------------------|------------------------------|
A||-----2-------3-----2-------3--|-----2-------3-----2-------3--|
E||------------------------------|------------------------------|
B||--0-----0h-1----0-----0h-1----|--0-----0h-1----0-----0h-1----|


  E  E  S  S E  E  E  S  S E     E  E  S  S E  Q     Q        
------------------------------|-----------------------------||
------------------------------|-----------------------------||
------------------------------|-----------------------------||
------------------------------|-----------------------------||
-----2-------3-----2-------3--|-----2-------3---------------||
------------------------------|-----------------------------||
--0-----0h-1----0-----0h-1----|--0-----0h-1---------19\-----||


  E  S S S S E  S S S S E  S S    E  S S S S S  S S S S S E  S S  
-------------------------------|---------------------------------|
-------------------------------|---------------------------------|
-------------------------------|---------------------------------|
--9--9-9-9---------------------|--5--5-5-5-5-5s-7-L-7-7-7-7--7-7-|
--9--9-9-9-0-7--L-7-7-7-7--7-7-|--5--5-5-5-5-5s-7-L-7-7-7-7--7-7-|
--7--7-7-7-0-7--L-7-7-7-7--7-7-|--3--3-3-3-3-3s-5-L-5-5-5-5--5-5-|
--0--0-0-0---5--L-5-5-5-5--5-5-|---------------------------------|


  S  S S S S S E  S S S S E  S S    S S E  E  S S S S S S S S S S    
---------------------------------|---------------------------------||
---------------------------------|---------------------------------||
---------------------------------|---------------------------------||
--7s-9-9-9-9---------------------|--5-5----------------------------||
--7s-9-9-9-9-0-7--L-7-7-7-7--7---|--5-5----------------------------||
--5s-7-7-7-7-0-7--L-7-7-7-7--7---|--3-3-------5-5-5-5-5-5-5-5-5----||
--0----0-0-0---5--L-5-5-5-5--5-0-|------------3-3-3-3-3-3-2-2-2-0--||



Here's the other guy's part . . .

Migliore
     S  E  S S S S  S S E  S S  S E     S  E  S S S S  S S E  S S  S E   
E||--6h-7--7-L-7-6h-7-L-7--7-6h-7-7--|--4h-5--5-L-5-4h-5-L-5--5-4h-5-5--|
B||--0-----0-L-0-0------0--0-0----0--|--0-----0-L-0-0------0--0-0----0--|
G||----------------------------------|----------------------------------|
D||----------------------------------|----------------------------------|
A||----------------------------------|----------------------------------|
E||----------------------------------|----------------------------------|
B||----------------------------------|----------------------------------|


  S  E  S S S S  S S E  S S  S E     S  E  S S S S  S S E  S S  S E     
--1h-2--2-L-2-1h-2-L-2--2-1h-2-2--|--1h-2--2-L-2-1h-2-L-2--2-1h-2-2---||
--0-----0-L-0-0------0--0-0----0--|--0-----0-L-0-0------0--0-0----0---||
----------------------------------|-----------------------------------||
----------------------------------|-----------------------------------||
----------------------------------|-----------------------------------||
----------------------------------|-----------------------------------||
----------------------------------|-----------------------------------||


   E.   S  S  S E  S E  S S S S S     E.   S  S  S E  S E  S S S S S  
----------------------------------|----------------------------------|
----------------------------------|----------------------------------|
--11---11-11-11-9--L-9--9-9-9-9-9-|--11---11-11-11-9--L-9--9-9-9-9-9-|
---9----9--9--9-9--L-9--9-9-9-9-9-|---9----9--9--9-9--L-9--9-9-9-9-9-|
----------------------------------|----------------------------------|
----------------------------------|----------------------------------|
----------------------------------|----------------------------------|


   E.   S  S  S E  S E  S S S S S     E.   S  S  S E  S E  S S S S S    
----------------------------------|-----------------------------------||
----------------------------------|-----------------------------------||
--11---11-11-11-9--L-9--9-9-9-9-9-|--11---11-11-11-9--L-9--9-9-9-9-9--||
---9----9--9--9-9--L-9--9-9-9-9-9-|---9----9--9--9-9--L-9--9-9-9-9-9--||
----------------------------------|-----------------------------------||
----------------------------------|-----------------------------------||
----------------------------------|-----------------------------------||









Duration Legend
---------------
W - whole
H - half
Q - quarter
E - 8th
S - 16th
T - 32nd
X - 64th
. - note dotted
|-n-|  - n-tuplets


Tablature Legend
----------------
L - tied note
x - dead note
g - grace note
(n) - ghost note
> - accentuded note
NH - natural harmonic
AH - artificial harmonic
TH - tapped harmonic
SH - semi harmonic
PH - pitch harmonic
h - hammer on
p - pull off
b - bend
br - bendRelease
pb - preBend
pbr - preBendRelease
brb - bendReleaseBend
\n/ - tremolo bar dip
\n - tremolo bar dive
-/n - tremolo bar Release up
/n\ - tremolo bar inverted dip
/n - tremolo bar return
-\n - tremolo bar Release down
S - shift slide
s - legato slide
/ -  slide into from below or out of upwards
\ -  slide into from above or out of downwards
~ - vibrato
W - wide vibrato
tr - trill
TP - tremolo picking
T - tapping
S - slap
P - pop
< - fade in
^ - brush up
v - brush down
Suggest correction
Give kudos to tab author, rate the tab!
1 2 3 4 5
comments
print report bad tab
guest
You may want to rate the tab now too:
select rating
Please do not post tabs as comments. Select "correction" instead!