Oops, an error
Loading. Please wait.

Game Bass Tab

416 views 1 this week
no commentswrite comment
1 2 3 4 5
please rate
add to favorites
launch autoscroll
font size
0
reset
guitar tuner
Tab Pro tools
  • play this tab
  • loop segment
  • change instrument
  • show fretboard
  • metronome
×
Best way to learn
"Game"
Autoscroll
slow
fast
+/-
esc
set tempo
stop
Contributor
intro
-----------------------|
-----------------------|
-----------------------|
----2------------2-----|
--2---0--2--2--0---2---|

verse                    (1,2,3)
------------------------|------------------------|
------------------------|------------------------|
------------------------|------------------------|
------------------------|-2-2--2-2---------------|
--2-2--2-2--0-0--0-0-0-0|----------2-2--2-2-2-2--|

(4th ending)
-------------|
-------------|
-------------|
--2-2--------|
------2-2-2--|

prechorus
-------------------|-----|-----|-----|-----|
-------------------|-----|-----|-----|-----|
-----------3-4-----|--%--|--%--|--%--|--3--|
--5-4--4-4-----5-4-|-----|-----|-----|-----|
-------------------|-----|-----|-----|-----|

chorus
-----------------------|
-----------------------|
-----------------------|
----2------------2-----|
--2---0--2--2--0---2---|

(bass only)
--------------------------|
--------------------------|
--------------------------|
--------------------------|
--2-2--2-2--0-0--0-0-0-0--|

verse                    (1,2,3)
------------------------|------------------------|
------------------------|------------------------|
------------------------|------------------------|
------------------------|-2-2--2-2---------------|
--2-2--2-2--0-0--0-0-0-0|----------2-2--2-2-2-2--|

(4th ending)
-------------|
-------------|
-------------|
--2-2--------|
------2-2-2--|

prechorus
-------------------|-----|-----|-----|-----|
-------------------|-----|-----|-----|-----|
-----------3-4-----|--%--|--%--|--%--|--3--|
--5-4--4-4-----5-4-|-----|-----|-----|-----|
-------------------|-----|-----|-----|-----|

chorus
-----------------------|
-----------------------|
-----------------------|
----2------------2-----|
--2---0--2--2--0---2---|

solo - play the prechorus 2 times without the final half note (on the 3rd string) then 
I'm not 100% sure that's correct, but it works.
-------------------4-7---------|
--3-4------6-7-----------------|
------5-4------5-4-----5-4--2--|
-------------------------------|
-------------------------------|

chorus
-----------------------|
-----------------------|
-----------------------|
----2------------2-----|
--2---0--2--2--0---2---|

outro 1st part - play twice (this is actually what the guitar is playing)
----------------------------------------------|
-------------------------------------6-6-6-6--|
--4-2-2-4-2-2-4-2-2-4-2-4-2-2-4-2-2-----------|
----------------------------------------------|
----------------------------------------------|

------------------------------------|
---------------------------3-3-3-3--|
--4-2-2-4-2-2-4-2-2-4-2-2-----------|
------------------------------------|
------------------------------------|

outro 2nd part - play 3 times
------------------------------------|
---------------------------6-6-6-6--|
--4-2-2-4---2-4-2-2-4---2-----------|
------------------------------------|
------------------------------------|

------------------------------------|
---------------------------3-3-3-3--|
--4-2-2-4---2-4-2-2-4---2-----------|
------------------------------------|
------------------------------------|

then
---------------------------------|
------------------------6-6-6-6--|
--4-2-2-4--2-4-2-2-4--2----------|
---------------------------------|
---------------------------------|

-------------------------|
-------------------------|
--4-2-2-4--2-4-2-2-4--2--|
-------------------------|
-------------------------|
comments
We did not receive enough feedback on this tab! Please rate:
print report bad tab
1 2 3 4 5
I want to post or [tab]
guest
You may want to rate the tab now too:
select rating
Please do not post tabs as comments. Select "correction" instead!