Oops, an error
Loading. Please wait.

Nothing Stands In Our Way Bass Tab

version 1
version 1

Whole song

Interactive

862 views 1 this week
no commentswrite comment
1 2 3 4 5
3 more votes to show rating
add to favorites
launch autoscroll
font size
0
reset
guitar tuner
Autoscroll
slow
fast
+/-
esc
set tempo
stop
Help us to improve Ultimate-Guitar.com Take our survey!
×
Author
Difficulty
novice
Lacuna Coil
Nothing Stands in Our Way


Intro

Listen for rhythm.  Just follow the power chords.  It’s all open B string.

Verse
G------------------|
D------------------|
A------------------|
E-7777----33332222-|    x4
B-----5555---------|

Chorus
G---------------------------------------------------------------------|
D---------------------------------------------------------------------|
A---------------------------------------------------------------------|
E-7777------------7777--------2-2222-7777------------7777----33332222-|
B-----333355552222----33335555-----------333355552222----3333---------|

Play the intro riff again.

Verse
G------------------|
D------------------|
A------------------|
E-7777----33332222-|    x4
B-----5555---------|

Chorus
G---------------------------------------------------------------------|
D---------------------------------------------------------------------|
A---------------------------------------------------------------------|
E-7777------------7777--------2-2222-7777------------7777----33332222-|
B-----333355552222----33335555-----------333355552222----3333---------|

Bridge
G------------------------------------|
D------------------------------------|
A------------------------------------|
E-33333333----------7777777777777777-|    x2
B----------55555555------------------|

G--------------------------------------------------------------|
D--------------------------------------------------------------|
A--------------------------------------------------------------|
E-------------------------------------------   x2  End on E-7~-|
B-0---000---000---000-0-0---000---000---000--------------------|

Chorus
G---------------------------------------------------------------------|
D---------------------------------------------------------------------|
A---------------------------------------------------------------------|
E-7777------------7777--------2-2222-7777------------7777----33332222-|
B-----333355552222----33335555-----------333355552222----3333---------|

End
G----------------------------------|
D----------------------------------|
A----------------------------------|
E-7777------------7777--------2222-|
B-----333355552222----33335555-----|

G----------------------------------|
D----------------------------------|
A----------------------------------|
E-7777------------7777----33332222-|
B-----333355552222----3333---------|

Last part is the Intro riff again.  End on open B-0 and let ring.
Suggest correction
Give kudos to tab author, rate the tab!
1 2 3 4 5
comments
print report bad tab
guest
You may want to rate the tab now too:
select rating
Wanna post a correction for this tab? Suggest correction