Oops, an error
Loading. Please wait.
We have an official Spellbound tab made by UG professional guitarists. Check out the tab »
×
13,242 views 6 this week
9 commentsread comments
1 2 3 4 5
x 6
add to favorites
×
Save as Personal and add changes to this tab that will be seen only by you. Learn more ›
×
You can save this tab as Personal to edit and correct it or add notes. All changes will be seen only by you. Learn more »
save as personal
new!
launch autoscroll
font size
0
reset
how to read this tab
guitar tuner
Autoscroll
slow
fast
+/-
esc
set tempo
stop
Author
Difficulty
Tuning
intermediate
C G C F A D
-------------------------------------------------------------------------------
                        SPELLBOUND - Lacuna Coil
-------------------------------------------------------------------------------
Tabbed by: Shard Heilia
Email: ShardNet@gmail.com

Tuning: Drop C


This song was a blast to tab. I love this song and I think I've nailed it 100 percent.



Intro:


Guitar 1:

   T-----|   8 8 8   16x
D|-------2-------2---|
A|----3--------3-----|
F|-4---------4-------|
C|-------------------|
G|-------------------|
C|-------------------|


Guitar 2:
                                        4x
D|-------------------------------------|
A|-------------------------------------|
F|-------------------------------------|
C|--5p4-----5p4-5p4-----5p4-5p4--------|
G|------2-2---------2-2---------2-2----|
C|-------------------------------------|
        P.M.        P.M.        P.M.
                                         P.M------------|       2x
D|---------------------------------------------------------------|
A|---------------------------------------------------------------|
F|--4--4--4------------------------------------------------------|
C|--4--4--4---5--5---5----2---2--2---0-0---2-2-2--2-2-2----------|
G|--2--2--2---5--5---5----2---2--2---0-0---2-2-2--2-2-2----------|
C|------------5--5---5----2---2--2---0-0---2-2-2--2-2-2----------|



Verse:

Guitar 1:

   T-----|   8 8 8   8x
D|-2---------2-------|
A|----3--------3-----|
F|-------4-------4---|
C|-------------------|
G|-------------------|
C|-------------------|
 


Guitar 2:

                        4x
D|-------------------------------------------|
A|-------------------------------------------|
F|-------------------------------------------|
C|-------------------------------------------|
G|-2-2-2-2---2---2------------4-2-4-2--------|
C|-------------------------------------------|
                        4x
D|-------------------------------------------|
A|-------------------------------------------|
F|-------------------------------------------|
C|-------------------------------------------|
G|-2-2-2-2---2---2---------------------------|
C|-------------------------------------------|



Both

D|--------------|
A|--------------|
F|-4------------|
C|-x------------|
G|-2------------|
C|--------------|



Chorus:


                                         P.M------------|        2x
D|---------------------------------------------------------------|
A|---------------------------------------------------------------|
F|--4--4--4------------------------------------------------------|
C|--4--4--4---5--5---5----2---2--2---0-0---2-2-2--2-2-2----------|
G|--2--2--2---5--5---5----2---2--2---0-0---2-2-2--2-2-2----------|
C|------------5--5---5----2---2--2---0-0---2-2-2--2-2-2----------|

Postchorus:

Both:
                                        2x
D|-------------------------------------|
A|-------------------------------------|
F|-------------------------------------|
C|--4p2-----4p2-4p2-----4p2-4p2--------|
G|------2-2---------2-2---------2-2----|
C|-------------------------------------|
        P.M.        P.M.        P.M.

Verse 2


Chorus 2


Postchorus 2:


Both:
                                        4x
D|-------------------------------------|
A|-------------------------------------|
F|-------------------------------------|
C|--5p4-----5p4-5p4-----5p4-5p4--------|
G|------2-2---------2-2---------2-2----|
C|-------------------------------------|
        P.M.        P.M.        P.M.

Solo:


D|------------------------------------------12-10-14-12---15-14--------------|
A|-12-12-12-12--12-12------7-7-7-7---7-7-----x--x--x--x----x--x--------------|
F|--x--x--x--x---x--x------x-x-x-x---x-x-----9--7-11--9---12-11--------------|
C|--9--9--9--9---9--9------4-4-4-4---4-4-------------------------------------|
G|---------------------------------------------------------------------------|
C|---------------------------------------------------------------------------|


Here he does random harmonics down the neck ending with:

   N.H.
D--------------|
A|-2*----------|
F|-------------|
C|-------------|
G|-------------|
C|-------------|



D|--7-7-7---9-9-9---10-10---12-12-12---14-------14----------19-------14----19----14---------|
A|--x-x-x---x-x-x----x--x----x--x--x----x----------17-17-17----17-17----17----17----17------|
F|--4-4-4---6-6-6----7--7----9--9--9---11----16---------------------------------------------|
C|------------------------------------------------------------------------------------------|
G|------------------------------------------------------------------------------------------|
C|------------------------------------------------------------------------------------------|


D|-14-17p14-14-14-17p14-14-14-17p14-14-14-14---------|
A|---------------------------------------------------|
F|--------------------------------------------x-\----|
C|--------------------------------------------x-\----|
G|--------------------------------------------x-\----|
C|---------------------------------------------------|
                                                Slide down


Rhythm part:

                                         P.M------------|        2x
D|---------------------------------------------------------------|
A|---------------------------------------------------------------|
F|--4--4--4------------------------------------------------------|
C|--4--4--4---5--5---5----2---2--2---0-0---2-2-2--2-2-2----------|
G|--2--2--2---5--5---5----2---2--2---0-0---2-2-2--2-2-2----------|
C|------------5--5---5----2---2--2---0-0---2-2-2--2-2-2----------|



Chorus

Everywhere I goo.... ( chorus part )


End:

D|--------------|
A|--------------|
F|-4-4-4-4------|
C|-4-4-4-4------|
G|-2-2-2-2------|
C|--------------|




There you are.

Email any corrections or comments to ShardNet@gmail.com




EXTRA NOTATION

| P.M. ---------| - Palm Mute
| T - Triplet
| 8 - 8th note


| /  slide up
| \  slide down
| h  hammer-on
| p  pull-off
| ~  vibrato
| +  harmonic
| x  Mute note
===============================================================================
Suggest correction
comments
print report bad tab
9 comments total. Showing first comments.
-2 reply
guitar-noob=P 41 Aug 08, 2009 03:39 AM

not tried this but im not sur weon this but in the video it looks like hes using a seven string guitar =S not sure

0 reply
guitar-noob=P 41 Aug 08, 2009 03:46 AM

yes he is useing a seven string im sure of it go http://www.youtube.com/watch?v=r_VS2B48c24 and pause at 2:15 u will count seven =) awesome tab anyway

+2 reply
Shard Heilia 214 Aug 08, 2009 11:23 AM

Well, this tab works on a 6 string, so it's all good. =P Thanks though.

guest
You may want to rate the tab now too:
select rating
Wanna post a correction for this tab? Suggest correction