Oops, an error
Loading. Please wait.

Swamped Bass Tab

version 1
version 1

Whole song

  • This tab is more accurate in all, more complete and better organized.

Interactive

2,562 views 3 this week
2 commentsread comments
1 2 3 4 5
please rate
add to favorites
launch autoscroll
font size
0
reset
guitar tuner
Autoscroll
slow
fast
+/-
esc
set tempo
stop
Help us to improve Ultimate-Guitar.com Take our survey!
×
Band- Lacuna Coil
Song- Swamped

G------------------------------------|
D------------------------------------|
A------------------------------------|
E--0--1--0-----0--0----1--0----------|
B------------------------------------|
Intro

G---------------------------------|--------------------------------------|
D---------------------------------|--------------------------------------|
A---------------------------------|--------------------------------------|
E--0--1--0-----0--0----1--0--|---0-0-0---1--0---0--0--1--0---------------|
B---------------------------------|--------------------------------------|
*verses

G----------------|
D----------------|
A---5^7----------|  *This little hammer-on fill is sometimes
E----------------|     played between the verses with variations
B----------------|

G--------------------------|
D--------------------------|
A--------------------------|
E--------------------------|
B---5----0---3----5--------|
chorus

G------------------------------------------|
D------------------------------------------|
A------------------------------------------|
E---0--------0--0--------0-------0---------|
B------------------------------------------|
The breakdown @3:04 is just a simple open E
Suggest correction
Give kudos to tab author, rate the tab!
1 2 3 4 5
comments
print report bad tab
2 comments total.
0 reply
stupidsmartguy 10 wrote on July 19 2010, 02:18 pm

not even close th main riff is...

E -0-0-0-1-0-0-0-0-0-0-0-1-0-0-0-0-0-0-0-1-0-0-0-0-0-0-0-1-0-0-0-0-0-0-0-1-

E -0-0-0-0-0-0-0-1-0-0-0-0-0-0-0-1-0-0-0-0-0-0-0-1-0-5-4-4-0-0-0-

0 reply
stupidsmartguy 10 wrote on July 19 2010, 02:19 pm

pluss the courus is something like ...

G -----------------------------------------|
D -----------------------------------------|
A -----------------------------------------|
E -----7-------3-3---------5---------------|
B -5-------5---------3-3-------3---5---5---|

guest
You may want to rate the tab now too:
select rating
Wanna post a correction for this tab? Suggest correction