Oops, an error
Loading. Please wait.

Swamped Tab

version 2
version 2

Whole song

Interactive

1,651 views 1 this week
no commentswrite comment
1 2 3 4 5
please rate
add to favorites
launch autoscroll
font size
0
reset
how to read this tab
guitar tuner
Autoscroll
slow
fast
+/-
esc
set tempo
stop
Help us to improve Ultimate-Guitar.com Take our survey!
×
Author
ARTISTS: LACUNA COIL
SONG: SWAMPED
ALBUM: COMALIES
TUNING: DROP D
USER: KBZON


[INTRO]

E|--------------------------------------------------------------------------|
B|--------------------------------------------------------------------------|
G|--------------------------------------------------------------------------|
D|-6-7p6-6-6-6-6------------------------------------------------------------|
A|---------------5-5/-7-7--7---7-7/8--8-8-8-8\--5-5/-7-7--7-----------------|
D|--------------------------------------------------------------------------|

[BRIDGE]

GTR I                  GTR II
E|------------------ ||---------|
B|-------------------||---------|
G|-------------------||-9/7/5/4-|
D|--2x32--2x2x232-xx-||-x/x/x/x-|
A|--2x32--2x2x232-xx-||-7/5/3/2-|
D|--2x32--2x2x232-xx-||---------|

[END BRIDGE]

GTR I    GTR II
E|-----||-------|
B|-----||-------|
G|-----||-9-----|
D|-2---||-x-----|
A|-2---||-7-----|
D|-2---||-------|

[VERSES]

E|----------------------------------------------------------------------|
B|----------------------------------------------------------------------|
G|----------------------------------------------------------------------| 
D|----------------------------------------------------------------------|
A|--7--7-7-\5-5--/8-8-8-8--8\7-7---7--7-7-\5-5--/11-11-11-11--11h12-11--|
D|----------------------------------------------------------------------|

[CHORUS]

GTR I           GTR II
E|------------||---------|
B|------------||---------|
G|-----9/7/9--||---------|
D|-222-x/x/x--||--7h9-9--|
A|-222-7/5/7--||-7-------|
D|-222--------||---------|

[BRIGDE 2]

GTR I
E|-------------------------------------------------------------------------|
B|-------------------------------------------------------------------------|
G|-------------------------------------------------------------------------|
D|22--2h3-3-222-2x3-2222222x3-3-2--22-2x3-2222222x3-3-222-2x3-2222222X3-3-2|
A|22--2h3-3-222-2x3-2222222x3-3-2--22-2x3-2222222x3-3-222-2x3-2222222x3-3-2|
D|22--2h3-1-222-2x3-2222222x3-3-2--22-2x3-2222222x3-3-222-2x3-2222222x3-3-2|

GTR II
E|-------------------------------------------------------------------------|
B|-------------------------------------------------------------------------|
G|-------------------------------------------------------------------------|
D|22------------2---------------------2-2---------------------2-----------2|
A|22-----%------2----------%----------2-2---------%-----------2-----%-----2|
D|22------------2---------------------2-2---------------------2-----------2|

[END SONG]

GTR I    GTR II
E|-----||-------|
B|-----||-------|
G|-----||-9-----|
D|-2---||-x-----|
A|-2---||-7-----|
D|-2---||-------|

ORDER:

[INTRO]
[BRIDGE]
GTR I(X8) GTR II(X1)
[END BRIDGE]
[VERSE] (X4)
[CHORUS]
GTR I(X2) GTR II(X2)
[BRIDGE]
GTR I(X4) GTR II(X1)
[END BRIDGE]
[VERSE] (X4)
[CHORUS]
GTR I (X4) GTR II(X4)
[BRIDGE]
GTR I(X8) GTR II(X1)
[BRIDGE 2]
[CHORUS]
GTR I (X4) GTR II(X4)
[END SONG]
Suggest correction
Give kudos to tab author, rate the tab!
1 2 3 4 5
comments
print report bad tab
guest
You may want to rate the tab now too:
select rating
Wanna post a correction for this tab? Suggest correction