Oops, an error
Loading. Please wait.
We have an official Swamped tab made by UG professional guitarists. Check out the tab »
×

Swamped bass

version 3
version 3

Whole song

  • This tab is more accurate in all, more complete and better organized.

Interactive

103 views 3 this week
no commentswrite comment
1 2 3 4 5
3 more votes to show rating
add to favorites
×
Save as Personal and add changes to this tab that will be seen only by you. Learn more ›
×
You can save this tab as Personal to edit and correct it or add notes. All changes will be seen only by you. Learn more »
launch autoscroll
font size
0
reset
guitar tuner
backing track
0:00
0:00
edit
Autoscroll
slow
fast
+/-
esc
set tempo
stop
About this tab version
This tab is more accurate in all, more complete and better organized. Was this info helpful? Yes No
Song: Swamped
Band: Lacuna Coil
Album: Comalies
Bassist: Marco Coti Zelati
Composer: Lacuna Coil
Tunning: 5 strings (G D A E B)
Tabbed by: FLBatista
 

MAIN RIFF (When Your taught...)(x2):

G|---------------------------------|
D|---------------------------------|
A|---------------------------------|x3
E|-0-0-0-1p0-0-0-0-0-0-0-1p0-0-0-0-|
B|---------------------------------|

G|---------------------------------|
D|---------------------------------|
A|---------------------------5h7\--|
E|-0-0-0-1p0-0-0-0-0-0-0-1p0-------|
B|---------------------------------|


BASS GROOVE:

G|------------------------|-----------------------------|
D|------------------------|-----------------------------|
A|------------------------|-----------------------5h7\--|
E|-0---1p0---0--0--1p0----|-0-0-0-1p0---0--0--1p0-------|
B|------------------------|-----------------------------|


VERSE 1 (Destiny flying...):

G|------------------------|-----------------------------|
D|------------------------|-----------------------------|
A|------------------------|-------8p7~------------5h7\--|
E|-0---1p0---0--0--1p0----|-0-0-0-------0--0--1p0-------|
B|------------------------|-----------------------------|

G|------------------------|-------------------------------|
D|------------------------|-------------------------------|
A|------------------------|-------8p7~---5h7-7-7-5h7-8-7\-|
E|-0---1p0---0--0--1p0----|-0-0-0------0------------------|
B|------------------------|-------------------------------|

G|------------------------|-----------------------------|
D|------------------------|-----------------------------|
A|------------------------|-----------------------5h7\--|
E|-0---1p0---0--0--1p0----|-0-0-0-1p0---0--0--1p0-------|
B|------------------------|-----------------------------|

G|------------------------|------------------------------|
D|------------------------|------------------------------|
A|------------------------|-------------5h7-7-7-5h7-8-7\-|
E|-0---1p0---0--0--1p0----|-0-0-0-1p0--------------------|
B|------------------------|------------------------------|


CHORUS 1 (It's just another day...):

G|----------------------|-----------------------|
D|----------------------|-----------------------|
A|----------------------|-----------------------|
E|----------------------|-----------------------|
B|-5---5-5--1----1------|-3---3-3--5----5----3--|

G|-----------------------|-----------------------------|
D|-----------------------|-----------------------------|
A|-----------------------|-----------------------------|
E|-----------------------|------------------------5h7\-|
B|-5---5-5--1----1----1--|-3---3--3-5---5--5--5-5------|


MAIN RIFF:

G|---------------------------------|
D|---------------------------------|
A|---------------------------------|x3
E|-0-0-0-1p0-0-0-0-0-0-0-1p0-0-0-0-|
B|---------------------------------|

G|---------------------------------|
D|---------------------------------|
A|---------------------------5h7\--|
E|-0-0-0-1p0-0-0-0-0-0-0-1p0-------|
B|---------------------------------|


VERSE 2 (Destiny, carry...) (x2):

G|------------------------|-----------------------------|
D|------------------------|-----------------------------|
A|------------------------|-----------------------5h7\--|
E|-0---1p0---0--0--1p0----|-0-0-0-1p0---0--0--1p0-------|
B|------------------------|-----------------------------|

G|------------------------|------------------------------|
D|------------------------|------------------------------|
A|------------------------|-------------5h7-7-7-5h7-8-7\-|
E|-0---1p0---0--0--1p0----|-0-0-0-1p0--------------------|
B|------------------------|------------------------------|


CHORUS 2 (Just another day...):

G|----------------------|-----------------------|
D|----------------------|-----------------------|
A|----------------------|-----------------------|
E|----------------------|-----------------------|
B|-5---5-5--1----1------|-3---3-3--5----5----3--|

G|------------------------|-------------------------|
D|------------------------|-------------------------|
A|------------------------|-------------------------|
E|------------------------|-------------------------|
B|-5---5-5--1----1--1--1--|-3---3--3-5---5--5-5--3--|

G|------------------------|-----------------------|
D|------------------------|-----------------------|
A|------------------------|-----------------------|
E|------------------------|-----------------------|
B|-5---5-5--1----1--1--1--|-3---3---5----5--5--3--|

G|------------------------|-------------------------|
D|------------------------|-------------------------|
A|------------------------|-------------------------|
E|------------------------|-------------------------|
B|-5---5-5--1----1--1--1--|-3---3--3-5---5--5-5--3--|


MAIN RIFF (When Your taught...) (x2):

G|---------------------------------|
D|---------------------------------|
A|---------------------------------|x3
E|-0-0-0-1p0-0-0-0-0-0-0-1p0-0-0-0-|
B|---------------------------------|

G|---------------------------------|
D|---------------------------------|
A|---------------------------5h7\--|
E|-0-0-0-1p0-0-0-0-0-0-0-1p0-------|
B|---------------------------------|


INTERLUDE:

G|--------------------|------------------|
D|--------------------|------------------|
A|--------------------|------------------|
E|-0-0--------------0-|-------------0--0-|
B|--------------------|------------------|

G|-----------------|-----------------|
D|-----------------|-----------------|
A|-----------------|-----------------|
E|---------------0-|---------0-------|
B|-----------------|-----------------|


CHORUS 3 (Just another day...):

G|------------------------|------------------------|
D|------------------------|------------------------|
A|------------------------|------------------------|
E|------------------------|------------------------|
B|-5---5-5--1----1--1--1--|-3---3---5----5--5--5-3-|

G|------------------------|-------------------------|
D|------------------------|-------------------------|
A|------------------------|-------------------------|
E|------------------------|-------------------------|
B|-5---5-5--1----1--1--1--|-3---3--3-5----5--5--5-3-|

G|------------------------|------------------------|
D|------------------------|------------------------|
A|------------------------|------------------------|
E|------------------------|------------------------|
B|-5---5-5--1----1--1--1--|-3---3---5----5--5--5-3-|

G|------------------------|-------------------------|
D|------------------------|-------------------------|
A|------------------------|-------------------------|
E|------------------------|-------------------------|
B|-5---5-5--1----1--1--1--|-3---3--3-5---5--5-5--5--|


OUTRO:

G|-----------------|
D|-----------------|
A|-----------------|
E|-----------------|
B|-5---------------|


CAPTIONS:

  / : Slide Up
  \ : Slide Down 
  h : Hammer On
  p : Pull Off
  ~ : Vibrato

            
            
Suggest correction
Creating personal tab
Creating personal tab
You can edit any tab online and save it as your Personal.

You can edit, replace or remove any tab part or add personal notes – all changes will be seen only by you.

Personal tabs can be accessed anytime from any device, even offline.
Learn more »
Give kudos to tab author, rate the tab!
1 2 3 4 5
comments
print report bad tab
guest
You may want to rate the tab now too:
select rating
Wanna post a correction for this tab? Suggest correction