Oops, an error
Loading. Please wait.

Swamped Tab

version 4
version 4

Whole song

Interactive

2,484 views 1 this week
2 commentsread comments
1 2 3 4 5
please rate
add to favorites
launch autoscroll
font size
0
reset
how to read this tab
guitar tuner
Autoscroll
slow
fast
+/-
esc
set tempo
stop
Help us to improve Ultimate-Guitar.com Take our survey!
×
Difficulty
novice
Tabbed by: Zac Meadows
Posted by: Iron Pete
E-mail: Bludragon5891@aol.com

Tuning: B E A D G B E (Standard 7-String)
This song is easy, so you should be able to get it right.

Intro: Synth for 6 measures

   Verse
      PM|     PM|     PM  PM    PM--|     PM|     PM|     PM  PM    PM--|4x
||------------------|-----------------|-----------------|-----------------||
||------------------|-----------------|-----------------|-----------------||
||o-----------------|-----------------|-----------------|-----------------||
||------------------|-----------------|-----------------|-----------------||
||o-7-----8-7-----7-|---7---8-7-------|-7-----8-7-----7-|---7---8-7-------||
||--7-7-7-8-7-7-7-7-|-7-7-7-8-7-7-7-7-|-7-7-7-8-7-7-7-7-|-7-7-7-8-7-7-7-7-||
||--5-5-5-6-5-5-5-5-|-5-5-5-6-5-5-5-5-|-5-5-5-6-5-5-5-5-|-5-5-5-6-5-5-5-5-||


 Bridge
Gtr 1
|----------------|-----------------|------------------|--------------------|
|----------------|-----------------|------------------|--------------------|
|----------------|-----------------|------------------|--------------------|
|----------------|-----------------|------------------|--------------------|
|7---------------|-(7)-------------|-(7)--------------|-(7)----------------|
|7---------------|-(7)-------------|-(7)--------------|-(7)----------------|
|5---------------|-(5)-------------|-(5)--------------|-(5)----------------|
|Gtr 2
|----------------|-----------------|------------------|--------------------|
|----------------|-----------------|------------------|--------------------|
|----------------|-----------------|------------------|--------------------|
|----------------|-----------------|------------------|--------------------|
|7-7-7-7-7s5-5-5s|==8---8--8s5-5-5-|--7--7-7-7-7s5--5s|=11---11--11h12-11--|
|----------------|-----------------|------------------|--------------------|
|----------------|-----------------|------------------|--------------------|


GtrII                                                                                    
                                                            4x
||-----------------|---------------|----------------|---------------------||
||-----------------|---------------|----------------|---------------------||
||o----------------|---------------|----------------|--------------------o||
||-----------------|---------------|----------------|---------------------||
||o7-7-7-7-7s5-5-5s|=8--8--8s5-5-5-|-7-7-7-7-7s5--5s|=11--11--11h12-11---o||
||-----------------|---------------|----------------|---------------------||
||-----------------|---------------|----------------|---------------------||


   Chorus
    Gtr I
||---------------|----------------|--------------|------------------||
||---------------|----------------|--------------|------------------||
||o--------------|----------------|--------------|-----------------o||
||---------------|----------------|--------------|------------------||
||o-7---------3--|-(3)------------|-5---------7--|-(7)-------------o||
||--7---------3--|-(3)------------|-5---------7--|-(7)--------------||
||--5---------1--|-(1)------------|-3---------5--|-(5)--------------||
|
|   Gtr III
||---------------|----------------|--------------|------------------||
||------------5--|-(5)------------|-----------5--|-(5)--------------||
||o-----4--------|---------2h4-4--|-----4--------|---------2h4-----o||
||--2------2-----|------2---------|-2------2-----|------2------2----||
||o--------------|----------------|--------------|-----------------o||
||---------------|----------------|--------------|------------------||
||---------------|----------------|--------------|------------------||


    Gtr I
      PM|     PM|     PM  PM    PM--|     PM|     PM|     PM  PM    PM--|
||------------------|-----------------|-----------------|-----------------||
||------------------|-----------------|-----------------|-----------------||
||o-----------------|-----------------|-----------------|----------------o||
||------------------|-----------------|-----------------|-----------------||
||o-7-----8-7-----7-|---7---8-7-------|-7-----8-7-----7-|---7---8-7------o||
||--7-7-7-8-7-7-7-7-|-7-7-7-8-7-7-7-7-|-7-7-7-8-7-7-7-7-|-7-7-7-8-7-7-7-7-||
||--5-5-5-6-5-5-5-5-|-5-5-5-6-5-5-5-5-|-5-5-5-6-5-5-5-5-|-5-5-5-6-5-5-5-5-||


 Interlude
  Gtr I
|-----------------|-----------------|------------------|-------------------|
|-----------------|-----------------|------------------|-------------------|
|-----------------|-----------------|------------------|-------------------|
|-----------------|-----------------|------------------|-------------------|
|-7---------------|-(7)-------------|-(7)--------------|-(7)---------------|
|-7---------------|-(7)-------------|-(7)--------------|-(7)---------------|
|-5---------------|-(5)-------------|-(5)--------------|-(5)---------------|
|
| Gtr II
|-----------------|-----------------|------------------|-------------------|
|-----------------|-----------------|------------------|-------------------|
|-----------------|-----------------|------------------|-------------------|
|-----------------|-----------------|------------------|-------------------|
|-7-7-7-7-7s5-5-5s|==8---8--8s5-5-5-|--7--7-7-7-7s5--5s|=11---11--11h12-11-|
|-----------------|-----------------|------------------|-------------------|
|-----------------|-----------------|------------------|-------------------|


    Gtr II
                                                                          3x
||------------------|---------------|----------------|--------------------||
||------------------|---------------|----------------|--------------------||
||o-----------------|---------------|----------------|--------------------||
||------------------|---------------|----------------|--------------------||
||o-7-7-7-7-7s5-5-5s|=8--8--8s5-5-5-|-7-7-7-7-7s5--5s|=11--11--11h12-11---||
||------------------|---------------|----------------|--------------------||
||------------------|---------------|----------------|--------------------||


   Chorus
    Gtr I                                                           4x
||---------------|----------------|--------------|------------------||
||---------------|----------------|--------------|------------------||
||o--------------|----------------|--------------|-----------------o||
||---------------|----------------|--------------|------------------||
||o-7---------3--|-(3)------------|-5---------7--|-(7)-------------o||
||--7---------3--|-(3)------------|-5---------7--|-(7)--------------||
||--5---------1--|-(1)------------|-3---------5--|-(5)--------------||
|
|   Gtr III                                                         4x
||---------------|----------------|--------------|------------------||
||------------5--|-(5)------------|-----------5--|-(5)--------------||
||o-----4--------|---------2h4-4--|-----4--------|---------2h4-----o||
||--2------2-----|------2---------|-2------2-----|------2------2----||
||o--------------|----------------|--------------|-----------------o||
||---------------|----------------|--------------|------------------||
||---------------|----------------|--------------|------------------||


    Gtr I
      PM|     PM|     PM  PM    PM--|     PM|     PM|     PM  PM    PM--|
||------------------|-----------------|-----------------|-----------------||
||------------------|-----------------|-----------------|-----------------||
||o-----------------|-----------------|-----------------|-----------------||
||------------------|-----------------|-----------------|-----------------||
||o-7-----8-7-----7-|---7---8-7-------|-7-----8-7-----7-|---7---8-7-------||
||--7-7-7-8-7-7-7-7-|-7-7-7-8-7-7-7-7-|-7-7-7-8-7-7-7-7-|-7-7-7-8-7-7-7-7-||
||--5-5-5-6-5-5-5-5-|-5-5-5-6-5-5-5-5-|-5-5-5-6-5-5-5-5-|-5-5-5-6-5-5-5-5-||


 Guitar Break
  PM--|     PM          PM    PM|     PM--|     PM          PM
|-----------------|-----------------|-----------------|----------------|
|-----------------|-----------------|-----------------|----------------|
|-----------------|-----------------|-----------------|----------------|
|-----------------|-----------------|-----------------|----------------|
|-------8s7---8s7-|-8s7---8s7-----7-|-------8s7---8s7-|-8s7---8s7-7--7-|
|-7-7-7-8s7-7-8s7-|-8s7-7-8s7-7-7-7-|-7-7-7-8s7-7-8s7-|-8s7-7-8s7-7--7-|
|-5-5-5-6s5-5-6s5-|-6s5-5-6s5-5-5-5-|-5-5-5-6s5-5-6s5-|-6s5-5-6s5-5--5-|


  PM--|     PM          PM    PM|     PM--|     PM
|-----------------|-----------------|-----------------|----------|
|-----------------|-----------------|-----------------|----------|
|-----------------|-----------------|-----------------|----------|
|-----------------|-----------------|-----------------|----------|
|-------8s7---8s7-|-8s7---8s7-----7-|-------8s7---8s7-|-7--------|
|-7-7-7-8s7-7-8s7-|-8s7-7-8s7-7-7-7-|-7-7-7-8s7-7-8s7-|-7--------|
|-5-5-5-6s5-5-6s5-|-6s5-5-6s5-5-5-5-|-5-5-5-6s5-5-6s5-|-5--------|


   Outro
    Gtr I                                                           4x
||---------------|----------------|--------------|------------------||
||---------------|----------------|--------------|------------------||
||o--------------|----------------|--------------|-----------------o||
||---------------|----------------|--------------|------------------||
||o-7---------3--|-(3)------------|-5---------7--|-(7)-------------o||
||--7---------3--|-(3)------------|-5---------7--|-(7)--------------||
||--5---------1--|-(1)------------|-3---------5--|-(5)--------------||
|
|   Gtr III                                                         4x
||---------------|----------------|--------------|------------------||
||------------5--|-(5)------------|-----------5--|-(5)--------------||
||o-----4--------|---------2h4-4--|-----4--------|---------2h4-----o||
||--2------2-----|------2---------|-2------2-----|------2------2----||
||o--------------|----------------|--------------|-----------------o||
||---------------|----------------|--------------|------------------||
||---------------|----------------|--------------|------------------||


  Gtr III
|----------|------------|------------|------------|--rest-----|
|----------|------------|------------|------------|-for-4-----|
|----------|------------|------------|------------|--measures-|
|-2--------|-(2)--------|-(2)--------|-(2)--------|-----------|
|----------|------------|------------|------------|-----------|
|----------|------------|------------|------------|-----------|
|----------|------------|------------|------------|-----------|

End

| /  slide up
|   slide down
| h  hammer-on
| p  pull-off
| ~  vibrato
| +  harmonic
| x  Mute note
Suggest correction new What's this?
You can suggest a correction to this tab. Community and Mods will review your correction and vote to approve or reject it.
comments
We did not receive enough feedback on this tab! Please rate:
print report bad tab
1 2 3 4 5
2 comments total.
0 reply
neon41 17 wrote on June 19 2007, 02:26 am

finally a correct one :P lacuna coil use steph carpenter sig esp 7 strings

0 reply
Will_EX400 49 wrote on October 27 2007, 07:34 pm

spotty dog this tab mate, well done!

guest
You may want to rate the tab now too:
select rating
Please do not post tabs as comments. Select "correction" instead!