Oops, an error
Loading. Please wait.

To The Edge Tab

version 1
version 1

Whole song

Interactive

3,807 views 18 this week
1 commentread comment
1 2 3 4 5
accurate
x 4
add to favorites
launch autoscroll
font size
0
reset
how to read this tab
guitar tuner
Tab Pro tools
  • play this tab
  • loop segment
  • change instrument
  • show fretboard
  • metronome
Autoscroll
slow
fast
+/-
esc
set tempo
stop
Contributor
Band : Lacuna coil
Album : Karmacode
Song : To the edge


tuning : B F# B E G# C#


* = play 8 times

p = pull off

h = hammer on

^ = bend

00.08 min
Intro / riff clean
-----------------------------------------------------------------|
-----------------------------------------------------------------|
-----------------------------------------------------------------|
-----------------------------------------------------------------|
---5--5--6h5-6h5---5--5--6h5-6h5---5--5--6h5-6h5---5--5----------|
--0--0--0---0---0-0--0--0---0---0-0--0--0---0---0-0--0--0--------|


00.16 min
riff
--------------------------------------------------------------------|
--------------------------------------------------------------------|
--------------------------------------------------------------------|
--------------------------------------------------------------------|
-^--5--5--6h5-6h5---5--5--6h5-6h5---5--5--6h5-6h5---5--5--6h5--^----|
-1-0--0--0---0---0-0--0--0---0---0-0--0--0---0---0-0--0--0---0-1----|


--------------------------------------------------------------------|
--------------------------------------------------------------------|
--------------------------------------------------------------------|
--------------------------------------------------------------------|
---5--5--6h5-6h5---5--5--6h5-6h5---5--5--6h5-6h5---5--5--6h5-6h5----|
--0--0--0---0---0-0--0--0---0---0-0--0--0---0---0-0--0--0---0---0---|



00.35 min
riff 2
----------------------------------------------------|
----------------------------------------------------|
----------------------------------------------------|
----------------------------------------------------|
--5----5----5p6-------------------5----5----5p6-----|
---00-0-00-0-----------------------00-0-00-0--------|


----------------------------------------------------------------------|
----------------------------------------------------------------------|
--------------------------------------------------------------xxxx----|
--------------------------------------------------------------xxxx----|
--5----5----5p6----6h5--6h5-6h5---5----5----5p6-----6h5--6h5--xxxx----|
---00-0-00-0----------00---0---0---00-0-00-0-----------00---0-xxxx----|


00.52 min
riff 1
---------------------------------------------------------------|
---------------------------------------------------------------|
---------------------------------------------------------------|
---------------------------------------------------------------|
---5--5--6h5-6h5---5--5--6h5-6h5---5--5--6h5-6h5---5--5---^----|
--0--0--0---0---0-0--0--0---0---0-0--0--0---0---0-0--0--0-1----|



01.00 min
chorus
---------------------------------------------------------|
---------------------------------------------------------|
--7-5------7-5--------7-5------7-5-----------------------|
--7-5-1-0--7-5-4-5-7--7-5-1-0--7-5-4-5-1---0-0-0---------|
--5-3-1-0--5-3-4-5-7--5-3-1-0--5-3-4-5-1---0-0-0---------|
------1-0------4-5-7------1-0------4-5-1---0-0-0---------|


01.20 min
riff 2
----------------------------------------------------|
----------------------------------------------------|
----------------------------------------------------|
----------------------------------------------------|
--5----5----5p6-------------------5----5----5p6-----|
---00-0-00-0-----------------------00-0-00-0--------|


----------------------------------------------------------------------|
----------------------------------------------------------------------|
--------------------------------------------------------------xxxx----|
--------------------------------------------------------------xxxx----|
--5----5----5p6----6h5--6h5-6h5---5----5----5p6-----6h5--6h5--xxxx----|
---00-0-00-0----------00---0---0---00-0-00-0-----------00---0-xxxx----|


01.38 min
riff 1
---------------------------------------------------------------|
---------------------------------------------------------------|
---------------------------------------------------------------|
---------------------------------------------------------------|
---5--5--6h5-6h5---5--5--6h5-6h5---5--5--6h5-6h5---5--5---^----|
--0--0--0---0---0-0--0--0---0---0-0--0--0---0---0-0--0--0-1----|


01.47 min
chorus
----------------------------------------------------|
----------------------------------------------------|
--7-5------7-5--------7-5------7-5------------------|
--7-5-1-0--7-5-4-5-7--7-5-1-0--7-5-4-5-1---0--------|
--5-3-1-0--5-3-4-5-7--5-3-1-0--5-3-4-5-1---0--------|
------1-0------4-5-7------1-0------4-5-1---0--------|

02.21 min
riff clean
-----------------------------------------------------------------|
-----------------------------------------------------------------|
-----------------------------------------------------------------|
-----------------------------------------------------------------|
---5--5--6h5-6h5---5--5--6h5-6h5---5--5--6h5-6h5---5--5----------|
--0--0--0---0---0-0--0--0---0---0-0--0--0---0---0-0--0--0--------|


02.29 min
riff 1
--------------------------------------------------------------------|
--------------------------------------------------------------------|
--------------------------------------------------------------------|
--------------------------------------------------------------------|
-^--5--5--6h5-6h5---5--5--6h5-6h5---5--5--6h5-6h5---5--5--6h5-6h5---|
-1-0--0--0---0---0-0--0--0---0---0-0--0--0---0---0-0--0--0---0---0--|


02.40 min
bridge guitar 1
--------------------------------------------------------------|
--------------------------------------------------------------|
--------------------------------------------------------------|
-070708h708h70-070708h708h70-070708h708h70-070708h708h70------|
--------------------------------------------------------------|
--------------------------------------------------------------|


02.40 min
bridge guitar 2
-----------------------------------------------------------------------|
--/15*-----14*-----11*-----10*-----/15*-----14*-----11*-----10*--------|
-----------------------------------------------------------------------|
-----------------------------------------------------------------------|
-----------------------------------------------------------------------|
-----------------------------------------------------------------------|


02.48 min
chorus
-------------------------------------------------|
-------------------------------------------------|
--7-5------7-5--------7-5------7-5---------------|
--7-5-1-0--7-5-4-5-7--7-5-1-0--7-5-4-5-1---------|
--5-3-1-0--5-3-4-5-7--5-3-1-0--5-3-4-5-1---------|
------1-0------4-5-7------1-0------4-5-1---------|


03.06 min
riff
---------------------------------------------------------------------|
---------------------------------------------------------------------|
---------------------------------------------------------------------|
---------------------------------------------------------------------|
----5--5--6h5-6h5---5--5--6h5-6h5---5--5--6h5-6h5---5--5--6h5-6~~~~--|
---0--0--0---0---0-0--0--0---0---0-0--0--0---0---0-0--0--0---0-------|


03.15 min
outro
---------------------------------------------|
---------------------------------------------|
---------------------------------------------|
---------------------------------------------|
----5--5--6h5-6h5-6~~~~--5p6-5-5-------------|
---0--0--0---0---0------0-----0--------------|
comments
print report bad tab
1 comment total.
0 reply
icefoxlc1995 wrote on September 16 2011, 09:12 pm

i think might have gotten the pull off mixed with the hammer-ons...... and u might wanna clear up the bridge part hehe just giving advice....

I want to post or [tab]
guest
You may want to rate the tab now too:
select rating
Please do not post tabs as comments. Select "correction" instead!