Oops, an error
Loading. Please wait.

What I See Tab

version 1
version 1

Whole song

Interactive

710 views 6 this week
no commentswrite comment
1 2 3 4 5
please rate
add to favorites
launch autoscroll
font size
0
reset
how to read this tab
guitar tuner
Tab Pro tools
  • play this tab
  • loop segment
  • change instrument
  • show fretboard
  • metronome
×
Best way to learn
"What I See"
Autoscroll
slow
fast
+/-
esc
set tempo
stop
Contributor
Difficulty
Tuning
intermediate
B E A D F# B
-----------------------------------------------------------------
What I See - Lacuna Coil
-----------------------------------------------------------------
Tabbed by:tommivercetti
Email:mr_runaway_666@hotmail.com

Tuning: BEADF#b or 7 string BEADGBE makes no odds all on top strings


borrowed some riffs off someone elses tab but it was only on guitar pro so i take no credit 
for this tab or the song which bolongs to lacuna coils record company not me!


please listen to song for timing



intro x1

b |-------|
F#|-------|
D |-------|
A |-------|
E |-3-3-3-|
B |-1-1-1-|
    . . .

intro2 x2

b |---------------------------------|
F#|---------------------------------|
D |---------------------------------|
A |---------------------------------|
E |-3-3-3-3---3-3-3-3-3-3---3-3-3-3-|
B |-1-1-1-1---1-1-1-1-1-1---1-1-1-1-|
    . . . .   . . . . . .   . . . .     



b |---------------------------------|
F#|---------------------------------|
D |---------------------------------|
A |---------------------------3--4--|
E |----3-3-3-3-3-3---3-3-3-3--3--4--|
B |----1-1-1-1-1-1---1-1-1-1--1--2--|
       . . . . . .   . . . . 

intro3 x3


b |---------------------------------|
F#|---------------------------------|
D |---------------------------------|
A |---------------------------------|
E |---------------------------------|
B |-1--1-1-1-1-0-1--1-1-1-0-2-2-2-0-|

intro end x1


b |---------------------------------|
F#|---------------------------------|
D |---------------------------------|
A |---------------------------------|
E |---------------------------------|
B |-1--1-1-1-1-0-1--1-1-1-0-2*------|    pinch squeel posibly 3*


then a bass bit then this x1



b |---------------------------------|
F#|---------------------------------|
D |---------------------------------|
A |---3---3---3--3--3--4------------|
E |---3---3---3--3--3--4------------|
B |---1---1---1--1--1--2------------|




b |---------------------------------|
F#|---------------------------------|
D |---------------------------------|
A |---3---3---3--3--3---------------|
E |---3---3---3--3--3---------------|
B |---1---1---1--1--1p0-------------|


pre chorus x1



b |---------------------------------|
F#|---------------------------------|
D |---------------------------------|
A |---3--3----3-----3--3-----3------|
E |---3--3----3-----3--3-----3------|
B |---1--1----1-----1--1-----1------|


b |---------------------------------|
F#|---------------------------------|
D |---------------------------------|
A |---3--3--------------------------|
E |---3--3------3-------------------|
B |---1--1---1--1---1---1---1p0-2---|



b |---------------------------------|
F#|---------------------------------|
D |---------------------------------|
A |---3--3----3-----3--3-----3------|
E |---3--3----3-----3--3-----3------|
B |---1--1----1-----1--1-----1------|


b |---------------------------------|
F#|---------------------------------|
D |---------------------------------|
A |---3---3-----3-----3--3--2-------|
E |---3---3-----3-----3--3--2-------|
B |---1---1-----1--0--1--1--0-------|


Chorus 1 x2



b |--------------------------------------|
F#|--------------------------------------|
D |--3---3------3------6---6------6------|
A |--3---3---3--3---3--6---6---6--6---6--|
E |--1---1---1--1---1--4---4---4--4---4--|
B |--------------------------------------|
             .      .          .      .




b |-------------------------------------|
F#|-------------------------------------|
D |-------------------------------------|
A |-----3-----3------6---6------6-------|
E |-----3-----3---3--6---6---6--6---6---|
B |-----1-----1---1--4---4---4--4---4---|
                  .          .      .




b |--------------------------------------|
F#|--------------------------------------|
D |--3---3------3------6---6------6------|
A |--3---3---3--3---3--6---6---6--6---6--|
E |--1---1---1--1---1--4---4---4--4---4--|
B |--------------------------------------|
             .      .          .      .




b |-----------------------------------|
F#|-----------------------------------|
D |-----------------------------------|
A |---3------3------3---3------3------|
E |---3------3---3--3---3---3--3---3--|
B |---1------1---1--1---1---1--1---1--|
                 .          .      .

same as intro3 x3


b |---------------------------------|
F#|---------------------------------|
D |---------------------------------|
A |---------------------------------|
E |---------------------------------|
B |-1--1-1-1-1-0-1--1-1-1-0-2-2-2-0-|

intro end x1


b |---------------------------------|
F#|---------------------------------|
D |---------------------------------|
A |---------------------------------|
E |---------------------------------|
B |-1--1-1-1-1-0-1--1-1-1-0-2*------|    pinch squeel posibly 3*



bass bits and a guitar break then
same as intro2 x4



b |-----------------------------------|
F#|-----------------------------------|
D |-----------------------------------|
A |-----------------------------------|
E |--3-3-3-3---3-3-3-3-3-3---3-3-3-3--|
B |--1-1-1-1---1-1-1-1-1-1---1-1-1-1--|
     . . . .   . . . . . .   . . . .     



b |---------------------------------|
F#|---------------------------------|
D |---------------------------------|
A |---------------------------3--4--|
E |----3-3-3-3-3-3---3-3-3-3--3--4--|
B |----1-1-1-1-1-1---1-1-1-1--1--2--|
       . . . . . .   . . . . 


then this

b |---------------------------------|
F#|---------------------------------|
D |---------------------------------|
A |---3--3----3-----3--3-----3------|
E |---3--3----3-----3--3-----3------|
B |---1--1----1-----1--1-----1------|



b |---------------------------------|
F#|---------------------------------|
D |---------------------------------|
A |---3--3--------------------------|
E |---3--3------3-------------------|
B |---1--1---1--1---1---1---1p0-2---|



b |---------------------------------|
F#|---------------------------------|
D |---------------------------------|
A |---3--3----3-----3--3-----3------|
E |---3--3----3-----3--3-----3------|
B |---1--1----1-----1--1-----1------|




b |---------------------------------|
F#|---------------------------------|
D |---------------------------------|
A |---3--3----3------3--3----2------|
E |---3--3----3------3--3----2------|
B |---1--1----1---0--1--1----0------|


chorus 2 x4



b |--------------------------------------|
F#|--------------------------------------|
D |--3---3------3------6---6------6------|
A |--3---3---3--3---3--6---6---6--6---6--|
E |--1---1---1--1---1--4---4---4--4---4--|
B |--------------------------------------|
             .      .          .      .




b |-------------------------------------|
F#|-------------------------------------|
D |-------------------------------------|
A |-----3-----3------6---6------6-------|
E |-----3-----3---3--6---6---6--6---6---|
B |-----1-----1---1--4---4---4--4---4---|
                  .          .      .




b |--------------------------------------|
F#|--------------------------------------|
D |--3---3------3------6---6------6------|
A |--3---3---3--3---3--6---6---6--6---6--|
E |--1---1---1--1---1--4---4---4--4---4--|
B |--------------------------------------|
             .      .          .      .




b |-----------------------------------|
F#|-----------------------------------|
D |-----------------------------------|
A |---3------3------3---3------3------|
E |---3------3---3--3---3---3--3---3--|
B |---1------1---1--1---1---1--1---1--|
                 .          .      .



bridge


b |--------------------------------------|
F#|--------------------------------------|
D |--------------------------------------|
A |--3---3-----3-----3---3-----3---------|
E |--3---3-----3-----3---3-----3---------|
B |--1---1-----1-----1---1-----1---------|



b |--------------------------------------|
F#|--------------------------------------|
D |--------------------------------------|
A |-----3-----3-----3---3-----3----------|
E |-----3-----3-----3---3-----3----------|
B |-----1-----1-----1---1-----1----------|


b |--------------------------------------|
F#|--------------------------------------|
D |--------------------------------------|
A |--3---3-----3-----3---3-----3---------|
E |--3---3-----3-----3---3-----3---------|
B |--1---1-----1-----1---1-----1---------|


b |--------------------------------------|
F#|--------------------------------------|
D |--------------------------------------|
A |-------3-----3------------------------|
E |-------3-----3------------------------|
B |-------1-----1------------------------|




intro3 again x3


b |---------------------------------|
F#|---------------------------------|
D |---------------------------------|
A |---------------------------------|
E |---------------------------------|
B |-1--1-1-1-1-0-1--1-1-1-0-2-2-2-0-|

intro end x1


b |---------------------------------|
F#|---------------------------------|
D |---------------------------------|
A |---------------------------------|
E |---------------------------------|
B |-1--1-1-1-1-0-1--1-1-1-0-2*------|    pinch squeel posibly 3*




intro3 x3



b |---------------------------------|
F#|---------------------------------|
D |---------------------------------|
A |---------------------------------|
E |---------------------------------|
B |-1--1-1-1-1-0-1--1-1-1-0-2-2-2-0-|

then this x1


b |---------------------------------|
F#|---------------------------------|
D |---------------------------------|
A |------3------3-----3---3---2-----|
E |------3------3-----3---3---2-----|
B |------1------1-----1---1---0-----|



chorus x2



b |--------------------------------------|
F#|--------------------------------------|
D |--3---3------3------6---6------6------|
A |--3---3---3--3---3--6---6---6--6---6--|
E |--1---1---1--1---1--4---4---4--4---4--|
B |--------------------------------------|
             .      .          .      .




b |-------------------------------------|
F#|-------------------------------------|
D |-------------------------------------|
A |-----3-----3------6---6------6-------|
E |-----3-----3---3--6---6---6--6---6---|
B |-----1-----1---1--4---4---4--4---4---|
                  .          .      .




b |--------------------------------------|
F#|--------------------------------------|
D |--3---3------3------6---6------6------|
A |--3---3---3--3---3--6---6---6--6---6--|
E |--1---1---1--1---1--4---4---4--4---4--|
B |--------------------------------------|
             .      .          .      .




b |-----------------------------------|
F#|-----------------------------------|
D |-----------------------------------|
A |---3------3------3---3------3------|
E |---3------3---3--3---3---3--3---3--|
B |---1------1---1--1---1---1--1---1--|
                 .          .      .


outro x4


b |-----------------------------------|
F#|-----------------------------------|
D |-----------------------------------|
A |-----------------------------------|
E |--3-3-3-3---3-3-3-3-3-3---3-3-3-3--|
B |--1-1-1-1---1-1-1-1-1-1---1-1-1-1--|
     . . . .   . . . . . .   . . . .     



b |---------------------------------|
F#|---------------------------------|
D |---------------------------------|
A |---------------------------3--4--|          3               3 4
E |----3-3-3-3-3-3---3-3-3-3--3--4--|          3               3 4
B |----1-1-1-1-1-1---1-1-1-1--1--2--|   maybe  1 x3 to end not 1 2
       . . . . . .   . . . . 







| /  slide up
| \  slide down
| h  hammer-on
| p  pull-off
| ~  vibrato
| +  harmonic
| x  Mute note
| .  palm mute
comments
We did not receive enough feedback on this tab! Please rate:
print report bad tab
1 2 3 4 5
I want to post or [tab]
guest
You may want to rate the tab now too:
select rating
Please do not post tabs as comments. Select "correction" instead!