Oops, an error
Loading. Please wait.

Cant Take My Eyes Off You intro tab

version 1
version 1

Intro

Whole song

9,790 views 3 this week
2 commentsread comments
1 2 3 4 5
x 5
add to favorites
×
Save as Personal and add changes to this tab that will be seen only by you. Learn more ›
×
You can save this tab as Personal to edit and correct it or add notes. All changes will be seen only by you. Learn more »
launch autoscroll
font size
0
reset
how to read this tab
guitar tuner
edit
Autoscroll
slow
fast
+/-
esc
set tempo
stop
Author
Can't Take My Eyes Off You (Intro)
by Lady Antebellum


      G                    Em                    C
e|--------------------------------------------------------3--------|
B|----0---------0---1-1h3---0--------0---1-1h3---1-----------1-----|
G|----------0--------------------0--------------------0---------0--|
A|-------0----0---------------2----2---------------2----2----------|
D|--------------------------2--------------------3-----------------|
E|----3------------------------------------------------------------|
    D
e|------------2--0-----|
B|--3----3----------3--|
G|-----2----2----------|   REPEAT
A|--0------------------|
D|---------------------|
E|---------------------|

It's my first time doing a tab so pls go easy on me :)
If I there's something wrong with it pls comment. And pls note that this is only the INTRO.

            
            
Suggest correction
Creating personal tab
Creating personal tab
You can edit any tab online and save it as your Personal.

You can edit, replace or remove any tab part or add personal notes – all changes will be seen only by you.

Personal tabs can be accessed anytime from any device, even offline.
Learn more »
comments
print report bad tab
2 comments total.
0 reply
hansnam 21 Jun 19, 2011 07:05 PM

i think the Em part should be
-------------
0-------0-1-1h3
----0--------
--2---2------
-------------
0------------

0 reply
hansnam 21 Jun 19, 2011 07:06 PM

and the C should be Cadd9 :)

guest
You may want to rate the tab now too:
select rating
Wanna post a correction for this tab? Suggest correction