Oops, an error
Loading. Please wait.

Downtown Tab

version 1
version 1

Whole song

Interactive

25,283 views 3 this week
2 commentsread comments
1 2 3 4 5
accurate
x 14
add to favorites
launch autoscroll
font size
0
reset
how to read this tab
guitar tuner
Autoscroll
slow
fast
+/-
esc
set tempo
stop
Help us to improve Ultimate-Guitar.com Take our survey!
×
Author
Difficulty
intermediate
Lady Antebellum "Downtown"


(intro)

e|-----------------------------------------------------------------------------|
B|-----------------------------------------------------------------------------|
G|-----------------------------------------------------------------------------|
D|-2-2-2-4-2-4-------2-2-2-4-2-4-----------2-4-2-4-----------2-4-2-4-----------|
A|-------------4-2-4-------------4-4-2-0-0---------4-4-2-0-0---------4-4-2-0-0-|
E|-----------------------------------------------------------------------------|

e|-9-7-5-4-9-7-5-4-5-6r-------4-4h5-4-|
B|-7-5-3-2-7-5-3-2------5-5-7---------|
G|-6-4-2-1-6-4-2-1--------------------|
D|------------------------------------|
A|------------------------------------|
E|------------------------------------|


(verse)
     E
Well, all the parties on the streets are talking, store front mannequins sleeping in lights.
A
  We used to smoke while we were jaywalking like it was your birthday every other saturday night.
E
  Knew The bands so we never payed our cover.
E
  Wrote our names on the bathroom tiles.
A
  We never dressed to impress all the others,
A                                           B
They would let us in on a laid back kind of style.
B
But Boy you know it's been a while.


(chorus)
             E
I don't know why you don't take me down town like you got anywhere better to be.
        A
Talk it up and give me the go round round like a good time tease.
         E 
I'm only countin' on your cancellation,
E
Then I should be countin' on you at my door.
        A
Did you forget about how we went around,
A                                                E                  A
I don't know why you don't take me downtown anymore,  ohhhhhhhh anymore.


e|-9-7-5-4-9-7-5-4-5-6r-------4-4h5-4-|
B|-7-5-3-2-7-5-3-2------5-5-7---------|
G|-6-4-2-1-6-4-2-1--------------------|
D|------------------------------------|
A|------------------------------------|
E|------------------------------------|


(verse)
E
  I got some platforms sitting in the corner.
E
  They wanna stroll on a city sidewalk.
A  
  I got a dress that'll show a little uhhh uh, 
A                                                       B
but you ain't getting uhh ohh if you don't come pick me up (damn),
B
Show me off (wow), you might be tired but I'm not!


(chorus)
                 E
And I don't know why you don't take me down town like you got anywhere better to be.
        A
Talk it up and give me the go round round like a good time tease.
         E 
I'm only countin' on your cancellation,
E
Then I should be countin' on you at my door.
        A
Did you forget about how we went around,
A                                              E
I don't know why you don't take me downtown anymore.


(instrumental)
e|------------------------------------------------|
B|--------------------------------------------5-5-|
G|-----------------------------------------s6-----|
D|------------------------2---4b-4br-2------------|
A|----------------2---2-4---4----------4-2--------|
E|-0-0-0-0-0-0-s4---4-----------------------------|

e|----5---5-5-5-5----9---9-9-9-----12----12-12-12-----17----17-15brb-|
B|-s5---5---------s7---7-------s10----10----------s14----14----------|
G|-------------------------------------------------------------------|
D|-------------------------------------------------------------------|
A|-------------------------------------------------------------------|
E|-------------------------------------------------------------------|


(chorus-out)
             (no chord)
I don't know why you don't take me down town like you got anywhere better to be.

Talk it up and give me the go round round like a good time tease.
         E
I'm only countin' on your cancellation, then I should be countin' on you at my door.
        A
Did you forget about how we went around,
A                                                    E           A
I don't know why you don't take me downtown anymore.    Ohhh anymore. 


2x
e|-----------------------------------------------------------------------------|
B|-----------------------------------------------------------------------------|
G|-----------------------------------------------------------------------------|
D|-2-2-2-4-2-4-------2-2-2-4-2-4-----------2-4-2-4-----------2-4-2-4-----------|
A|-------------4-2-4-------------4-4-2-0-0---------4-4-2-0-0---------4-4-2-0-0-|
E|-----------------------------------------------------------------------------|

e|-9-7-5-4-9-7-5-4-5-6r-------4-4h5-4-|
B|-7-5-3-2-7-5-3-2------5-5-7---------|
G|-6-4-2-1-6-4-2-1--------------------|
D|------------------------------------|
A|------------------------------------|
E|------------------------------------|


                    E   
Yeaaaaah don't know why you don't take me downtown,
E                                               A
I don't know why you don't take me downtown anymore.
                      E
I just don't get it.
Suggest correction
comments
print report bad tab
2 comments total.
+2 reply
dstructo 42 wrote on November 29 2013, 11:59 am

Second part of the intro riff is like this:

|-9--7-5-4-|-9--7-5-4-|-5-7\-0---|-0-2-4-5--4---|
|-10-9-7-5-|-10-9-7-5-|-7-9\-2---|-2-4-5-7--5---|
|----------|----------|----------|--------------|
|----------|----------|----------|--------------|
|----------|----------|----------|--------------|
|----------|----------|----------|--------------|

Otherwise, nice job!

0 reply
racer123246 10 wrote on June 30 2014, 08:19 pm

Lack of accuracy.

guest
You may want to rate the tab now too:
select rating
Please do not post tabs as comments. Select "correction" instead!