Oops, an error
Loading. Please wait.

I Run To You bass

version 1
version 1

Whole song

6,305 views 3 this week
1 commentread comment
1 2 3 4 5
x 3
add to favorites
×
Save as Personal and add changes to this tab that will be seen only by you. Learn more ›
×
You can save this tab as Personal to edit and correct it or add notes. All changes will be seen only by you. Learn more »
launch autoscroll
font size
0
reset
guitar tuner
edit
Autoscroll
slow
fast
+/-
esc
set tempo
stop
Difficulty
intermediate
Run to You
Lady Antebellum-
Tabs by Salt
This is my own work as I hear it from the recordings. This is the extended
ending version.  There are two.  One with the voice fading (this one).
And, the quick end.
--------------------------------------------------------------------------------
BASS Guitar
Intro:
G|--------------------|--------------|-----10 12---|13 12 10---|
D|13 12 13 12 13 12 10|--------------|10 13 -----13|---------13|
A|--------------------|13 13 13 13 13|-------------|-----------|
E|-------------------------------------------------|-----------|

G|--------------------|--------------|-----10 12---|13 15 15 15|
D|13 12 13 12 13 12 10|--------------|10 13 -----13|-----------|
A|--------------------|13 13 13 13 13|-------------|-----------|
E|-------------------------------------------------|-----------|

Verse: Two times though.
Charles Kelly sings first
Then Hillary Scott
G|--------|33333333|--------|11111111|--------|33333333|--------|11111111|
D|11111111|--------|33333333|--------|11111111|--------|33333333|--------|
A|--------|--------|--------|--------|--------|--------|--------|--------|
E|--------|--------|--------|--------|--------|--------|--------|--------|

 Pre Chorus
When lives become the truth
G|3------|-------|3------|-------|3333|3333|<= Tempo changed
D|-------|3------|-------|3------|----|----|
A|-------|-------|-------|-------|----|----|
E|-------|-------|-------|-------|----|----|

Chorus: first time
This world is spinning faster
G|----|--88|8753|3-33|3-33|----|1-11|----|--88|8753|3-33|3-33\8|----|1-11|
D|1-11|1\--|----|---g|---g 3-33|----|1-11|1\--|----|---g|---g  |3-33|----|
A|----|----|----|----|----|---g|----|----|----|----|----|------|---g|----|
E|----|----|----|----|----|----|----|----|----|----|----|------|----|----|

Start of second Intro
G|--------------------|--------------|-----10 12---|13---|
D|13 12 13 12 13 12 10|--------------|10 13 -----13|-----|
A|--------------------|13 13 13 13 13|-------------|-----|
E|-------------------------------------------------|-----|

Verse:
Both Hillary and Charles:
We run.on fumes
G|--------|33333333|--------|11111111|--------|33333333|--------|11111111|
D|11111111|--------|33333333|--------|11111111|--------|33333333|--------|
A|--------|--------|--------|--------|--------|--------|--------|--------|
E|--------|--------|--------|--------|--------|--------|--------|--------|

Pre Chorus:
Our love’s the only truth
G|33—33-|33—33-|------|------|33—33-|33—33-|----|3333|3333|
D|--3--3|--3--3|33-33-|33-33-|--3--3|--3--3|3333|----|----|
A|------|------|--3--3|--3--3|------|------|----|----|----|
E|------|------|------|------|------|------|----|----|----|

Chorus: second time
G|----|--88|8753|3-33|3-33|----|1-11|----|--88|8753|3-33|3-33\8|----|1-11|
D|1-11|1\--|----|---g|---g 3-33|----|1-11|1\--|----|---g|---g  |3-33|----|
A|----|----|----|----|----|---g|----|----|----|----|----|------|---g|----|
E|----|----|----|----|----|----|----|----|----|----|----|------|----|----|

Bridge:
                | Ohhh whaooo  |oh I run to you
G|1111|----|3333|5555|1111|----|3333|1111|----|3333|5555|----|3333|3332|
D|----|1111|----|----|----|1111|----|----|1111|----|----|3333|----|----|1
A|----|----|----|----|----|----|----|----|----|----|----|----|----|----|
E|----|----|----|----|----|----|----|----|----|----|----|----|----|----|

Outtro:
this world keeps spinning faster \  (this is done a capella)
To an new disaster so I          /
 |Run <=  start playing on “Run”)
G|1-1/(17)-repeat slide from about 10 to 17 twice|
D|-------|--------------|--------|--------|----|
A|--------|--------------|--------|--------|---|
E|--------|--------------|--------|--------|---|

when it all starts commin undone……<=Lyrics portion
G|----|--88|8753|3-33|3-33|----|1111|1111|3333|3333|
D|1-11|1\--|----|---g|---g 3-33|----|----|----|----|
A|----|----|----|----|----|---g|----|----|----|----|
E|----|----|----|----|----|----|----|----|----|----|


G|----|--88|8753|3-33|3-33|----|1111|1111|1\8-\(17---|
D|1-11|1\--|----|---g|---g 3-33|----|----|----|------|
A|----|----|----|----|----|---g|----|----|----|------|
E|----|----|----|----|----|----|----|----|----|------|

These are all double digit notes
G|17-19|16-17-19-21|--17-19-21-19|
D|--------|--------|16-----------|
A|--------|----------------------|
E|--------|----------------------|

            
            
Suggest correction
Creating personal tab
Creating personal tab
You can edit any tab online and save it as your Personal.

You can edit, replace or remove any tab part or add personal notes – all changes will be seen only by you.

Personal tabs can be accessed anytime from any device, even offline.
Learn more »
Give kudos to tab author, rate the tab!
1 2 3 4 5
comments
print report bad tab
1 comment total.
0 reply
TimDrums7 10 Aug 24, 2010 11:29 AM

Intro:

G|-----------------------|-----------------------|10-10-12-------------12/|13-13-13-13-13-12-10---|
D|13-13-13-12-12-12-10-10|------------------10-13|---------13-13-13-13----|-----------------------|
A|-----------------------|13-13-13-13-13-13------|------------------------|-----------------------|
E|-----------------------------------------------------------------------------------------------|

G|-----------------------|-----------------------|10-10-12-------------12/|17-17-17-17-17-15-13---|
D|13-13-13-12-12-12-10-10|------------------10-13|---------13-13-13-13----|-----------------------|
A|-----------------------|13-13-13-13-13-13------|------------------------|-----------------------|
E|-----------------------------------------------------------------------------------------------|

guest
Wanna post a correction for this tab? Suggest correction