Oops, an error
Loading. Please wait.

Need You Now Bass

version 1
version 1

Whole song

Interactive

10,574 views 9 this week
no commentswrite comment
1 2 3 4 5
x 5
add to favorites
launch autoscroll
font size
0
reset
guitar tuner
backing track
0:00
0:00
×
Best way to learn
"Need You Now"
Autoscroll
slow
fast
+/-
esc
set tempo
stop
Author
Difficulty
Okay this isn't complete but it gives you an idea of how its played if you
 have some add ons about it please let me know because I don't have the full
 version of it. So have fun with this what I got. I'm still missing the
 Bridge and the end of the chorus. Hope this helps if i figure it out I will
 update it.

If you got some tips on it you can mail me: no.escaping.gravity@hotmail.com

Standard Tunning: e, a, d, g,

Intro:
g-------------------------|------------------------|------------------------|
d-------------------------|------------------------|------------------------|
a-------------------------|------------------------|-14-14-14-14-16-16-16-16|
e-15-15-15-15-15-15-15-15-|-15-15-15-15-15-15-15-17|------------------------|

g------------------------|
d-------------16-16-16-16|
a-17-17-17-17------------|
e------------------------|

Chorus:
g----------------|----------------|----------------|-----------------|
d----------------|----------------|----------------|-----------------|
a----------------|----------------|----------------|-----------------|
e-0-0-0-0-0-0-0-0|-0-0-0-0-0-0-0-3|-4-4-4-4-4-4-4-4|-4-4-4-4-4-4-4\16|
Suggest correction
comments
print report bad tab
guest
You may want to rate the tab now too:
select rating
Wanna post a correction for this tab? Suggest correction