Oops, an error
Loading. Please wait.

Bad Romance Bass Tab

version 4
version 4
1,265 views 1 this week
no commentswrite comment
1 2 3 4 5
please rate
add to favorites
launch autoscroll
font size
0
reset
guitar tuner
Autoscroll
slow
fast
+/-
esc
set tempo
stop
Help us to improve Ultimate-Guitar.com Take our survey!
×
Author
Difficulty
bass50611 7,300
intermediate
Bad Romance
tabbed by bass50611
Having looked at the other bass tabs, some don't fit and
some are so long (one tab 6 pages of A4!)
I was getting dizzy just trying to
work them out so here is my simplified version.
Makes the song so much easier to play and it does fit.

Intro:             (QUAVERS)
G|------------|-----------------------------------------|
D|---NO BASS--|-----------------------------------------|
A|-FIRST PART-|---------------------00000000-33333333---|
E|------------|---11111111-33333333---------------------|

Verse 1: First Part no bass

Part 2:
G|--------------------------------------------------|
D|-----2-2-3-2------2-2-3-2-----2-2-3-2-------------|
A|-0-0----------0-0---------0-0---------3-3-3---3-3-|
E|--------------------------------------------------|

Part 3:       (PLAY THIS x4)
G|--------------------------------------------|
D|--------------------------------------------|
A|-00000000---3333-------00000000---3333------|
E|-----------------3333------------------3333-|

Chorus/Refrain:                         (QUAVERS ~ PLAY THIS x2)
G|-------------------------------------------------------------------------|
D|-33333333-55555555-77777777------0-2-------------------------------------|
A|---------------------------3333-3---3---------------------------33333333-|
E|--------------------------------------11111111-33333333-55555555---------|

Repeat Part 2 of Verse

Repeat Part 3 of Verse:

Repeat Chorus/Refrain:

Repeat Part 2 of Verse x2:

Bridge:           (PLAY THIS BIT x2)
G|---------------------------------|
D|---------------------------------|
A|-3-3-3-3-3-3-3-3-3-3-3-3-3-3-3-3-|
E|---------------------------------|

G|----------------------------------------------------------------------|
D|-3--------5--------7-------------------3---------5---------7----------|
A|-----------------------------3--------------------------------------3-|
E|----------------------------------------------------------------------|

G|------------------------------------------------------------------------|
D|------------------------------------------------------------------------|
A|------------------------------------------------------------------------|
E|-1--------3--------5---------8---------1-----------3---------5--------x-|

Repeat Chorus/Refrain:

Outro: Same As Part 2 of verse ~ No Bass
Suggest correction
What's this?
You can suggest a correction to this tab. Community and Mods will review your correction and vote to approve or reject it.
comments
We did not receive enough feedback on this tab! Please rate:
print report bad tab
1 2 3 4 5
guest
You may want to rate the tab now too:
select rating
Please do not post tabs as comments. Select "correction" instead!