Oops, an error
Loading. Please wait.

Bad Romance Tab

version 7
6,047 views 1 this week
no commentswrite comment
1 2 3 4 5
2 more votes to show rating
add to favorites
launch autoscroll
font size
0
reset
how to read this tab
guitar tuner
Autoscroll
slow
fast
+/-
esc
set tempo
stop
Help us to improve Ultimate-Guitar.com Take our survey!
×
Difficulty
intermediate
d|-------0-----1--1-1-1-0--------------0--0-0-0------------------------------| 
A|-1--3-----1-------------3---0--1--3-----------3-1---1----------------------| 
F|---------------------------------------------------0-----------------------| 
C|-------------3------3----------------2------------2------------------------|
G|--------------------------------------------0---3----3---------------------| 
D|--------------------------3------------------------------------------------| x2 

d|-------0-0-1-0--------0-0-1-0---------0-0-1-0------------------------------| 
A|-------------------------------------------------1-1---1-------------------| 
F|-2--2------------2-2------------2--2-----------------2----0----------------| 
C|---------------------------------------------------------------------------|
G|-0--0------0-----0-0------0-----0--0------0------0-----3-------------------| 
D|---------------------------------------------------------------------------| x2

d|---------------------------------------------------------------------------| 
A|----------------1----------------------------------------------------------| 
F|---2-2-2-2-2--2---2-0-2----2-----------------------------------------------| 
C|--------------------------3------------------------------------------------|
G|-0-------0------3--------3-------------------------------------------------| 
D|------------------------1--------------------------------------------------| x2

d|------------0--------------------------------------------------------------| 
A|--------------1-----------------------1------------------------------------| 
F|-2---2--2-2-----2---2-0-2---2--2-2---0-------------------------------------| 
C|------------------3-----------------2--------------------------------------|
G|-0---0---0--3-----------0---0---0--3---------------------------------------| 
D|----------------1----------------------------------------------------------|

d|---------------------------------------------------------------------------| 
A|----------------1----------------------------------------------------------| 
F|---2-2-2-2-2--2---2-0-2----2-----------------------------------------------| 
C|--------------------------3------------------------------------------------|
G|-0-------0------3--------3-------------------------------------------------| 
D|------------------------1--------------------------------------------------| x2

d|------------0----------------------------0^--------------------------------| 
A|--------------1-----------------------1--3|--------------------------------| 
F|-2---2--2-2-----2---2-0-2---2--2-2---0---0|--------------------------------| 
C|------------------3-----------------2----0|--------------------------------|
G|-0---0---0--3-----------0---0---0--3-----0|--------------------------------| 
D|----------------1------------------------3|--------------------------------|

d|---5-5-5-5-5--5-3-3-3-3--------0--0-0-0-3--0-----------0-------------------| 
A|------------------------3--3-3---------------3-1---1-3---1-----------------| 
F|---------------------------------------------------------------------------| 
C|-3-------3-----------------------------------------------------------------| 
G|-------------------------------3--------3------3---------------------------| 
D|----------------3-------3--------------------------------------------------|

d|---5-5-5-5-5--5-3-3-3-3--------0--0-0-0-3--0-------------------------------| 
A|------------------------3--3-3---------------3-1---------------------------| 
F|---------------------------------------------------------------------------| 
C|-3-------3-----------------------------------------------------------------| 
G|-------------------------------3--------3------3---------------------------| 
D|----------------3-------3--------------------------------------------------| 

ist wieder der anfang
d|-------0-----1--1-1-1-0--------------0--0-0-0------------------------------| 
A|-1--3-----1-------------3---0--1--3-----------3-1---1----------------------| 
F|---------------------------------------------------0-----------------------| 
C|-------------3------3----------------2------------2------------------------|
G|--------------------------------------------0---3----3---------------------| 
D|--------------------------3------------------------------------------------| x2 

d|-------0-0-1-0--------0-0-1-0---------0-0-1-0------------------------------| 
A|-------------------------------------------------1-1---1-------------------| 
F|-2--2------------2-2------------2--2-----------------2----0----------------| 
C|---------------------------------------------------------------------------|
G|-0--0------0-----0-0------0-----0--0------0------0-----3-------------------| 
D|---------------------------------------------------------------------------| x2

hier hab ich manchma selbst schwierigkeiten, is auch ziemlich abgeändert von mir hier, 
spiels erstma schön langsam ;)
d|------------------------------------0-0-0----------------------------------| 
A|------1-0------1-1-0-------1-0-----------3-1-------------------------------| 
F|----2-----0-2--------0---------0-2-----------------------------------------| 
C|---3-------------------2---------------------------------------------------| 
G|--3------------------------------3------3--3-------------------------------| 
D|-1----------1----------3---------------------------------------------------| 

d|---------------------------------------------------------------------------| 
A|------1-0------1-1-0-------1--0--------------------------------------------| 
F|----2-----0-2--------0----------0-2----------------------------------------| 
C|---3-------------------2---------------------------------------------------| 
G|--3-------------------------------3----------------------------------------| 
D|-1----------1----------3---------------------------------------------------|


soo, jetz eig wieder von vorne wenn du willst, spiel eig dann noch das hier
d|-------0-----1--1-1-1-0--------------0--0-0-0------------------------------| 
A|-1--3-----1-------------3---0--1--3-----------3-1---1----------------------| 
F|---------------------------------------------------0-----------------------| 
C|-------------3------3----------------2------------2------------------------|
G|--------------------------------------------0---3----3---------------------| 
D|--------------------------3------------------------------------------------| x2 

d|-------0-0-1-0--------0-0-1-0---------0-0-1-0------------------------------| 
A|-------------------------------------------------1-1---1------1^-----------| 
F|-2--2------------2-2------------2--2-----------------2----0---2|-----------| 
C|--------------------------------------------------------------2|-----------|
G|-0--0------0-----0-0------0-----0--0------0------0-----3------0|-----------| 
D|---------------------------------------------------------------------------|
Suggest correction
Give kudos to tab author, rate the tab!
1 2 3 4 5
comments
print report bad tab
guest
You may want to rate the tab now too:
select rating
Wanna post a correction for this tab? Suggest correction