Oops, an error
Loading. Please wait.

Bad Romance Tab

version 9
7,804 views 1 this week
no commentswrite comment
1 2 3 4 5
excellent!
x 4
add to favorites
launch autoscroll
font size
0
reset
how to read this tab
guitar tuner
Autoscroll
slow
fast
+/-
esc
set tempo
stop
Help us to improve Ultimate-Guitar.com Take our survey!
×
Author
"Oh..."
----0---1-0-1-0---------0-0-0-0----|----0---1-0-1-0---------0-0-0-0----|
1-3---1---------3-0-1-3---------3-1|1-3---1---------3-0-1-3---------3-1|
-----------------------------------|-----------------------------------|
-----------------------------------|-----------------------------------|
-----------------------------------|-----------------------------------|
-----------------------------------|-----------------------------------|

"Ra ra ah ah ah...
----0-0-1-0-----0-0-1-0-----0-0-1-0------------|----0-0-1-0-----0-0-1-0-----0-0-1-0------------|
------------------------------------1-1---1---1|------------------------------------1-1---1---1|
2-2---------2-2---------2-2-------------2---2--|2-2---------2-2---------2-2-------------2---2--|
-----------------------------------------------|-----------------------------------------------|
-----------------------------------------------|-----------------------------------------------|
-----------------------------------------------|-----------------------------------------------|

"I want your ugly..."
---------------------|-----------------------|--------0------------|
------------1--------|--------------1--------|----------1-------2-2|
0-2-0-2-2-2---2-0-2-0|2-2-0-2-0-2-0---2-0-2-0|--0-2-2-----2---0----|
---------------------|-----------------------|2-------------2------|
---------------------|-----------------------|---------------------|
---------------------|-----------------------|---------------------|

"I want your drama..."
---------------------|-----------------------|--------0------------|
1-1---1-1---1-1-1-1--|1-1---1---1---1--------|----------1-------2-2|
----2-----2---------0|----2---2---2---2-2-2-0|--0-2-2-----2---0----|
---------------------|-----------------------|2-------------2------|
---------------------|-----------------------|---------------------|
---------------------|-----------------------|---------------------|

"You know that I want you..."
-----------------------------------------|
-----------------------------------------|
2-2-2-2-2-2-2-2-2-2-2-2-2-2-2-2-2-2-2-2-2|
-----------------------------------------|
-----------------------------------------|
-----------------------------------------|

"I want your love..."
5-5-5-5-5-3-3-3-3---------------3------|5-5-5-5-5-3-3-3-3---------------4------|
------------------3-3-3-5-5-5-5---3-3-1|------------------3-3-3-5-5-5-5---3-3-1|
---------------------------------------|---------------------------------------|
---------------------------------------|---------------------------------------|
---------------------------------------|---------------------------------------|
---------------------------------------|---------------------------------------|

"Oh..."
----0---1-0-1-0---------0-0-0-0----|----0---1-0-1-0---------0-0-0-0----|
1-3---1---------3-0-1-3---------3-1|1-3---1---------3-0-1-3---------3-1|
-----------------------------------|-----------------------------------|
-----------------------------------|-----------------------------------|
-----------------------------------|-----------------------------------|
-----------------------------------|-----------------------------------|

"Ra ra ah ah ah...
----0-0-1-0-----0-0-1-0-----0-0-1-0------------|
------------------------------------1-1---1---1|
2-2---------2-2---------2-2-------------2---2--|
-----------------------------------------------|
-----------------------------------------------|
-----------------------------------------------|

"I want your horror..."
---------------------|-----------------------|--------0------------|
------------1--------|--------------1--------|----------1-------2-2|
0-2-0-2-2-2---2-0-2-0|2-2-0-2-0-2-0---2-0-2-0|--0-2-2-----2---0----|
---------------------|-----------------------|2-------------2------|
---------------------|-----------------------|---------------------|
---------------------|-----------------------|---------------------|

"I want your psycho..."
---------------------|-----------------------|--------0------------|
1-1---1-1---1-1-1-1--|1-1---1---1---1--------|----------1-------2-2|
----2-----2---------0|----2---2---2---2-2-2-0|--0-2-2-----2---0----|
---------------------|-----------------------|2-------------2------|
---------------------|-----------------------|---------------------|
---------------------|-----------------------|---------------------|

"You know that I want you..."
-----------------------------------------|
-----------------------------------------|
2-2-2-2-2-2-2-2-2-2-2-2-2-2-2-2-2-2-2-2-2|
-----------------------------------------|
-----------------------------------------|
-----------------------------------------|

"I want your love..."
5-5-5-5-5-3-3-3-3---------------3------|5-5-5-5-5-3-3-3-3---------------4------|
------------------3-3-3-5-5-5-5---3-3-1|------------------3-3-3-5-5-5-5---3-3-1|
---------------------------------------|---------------------------------------|
---------------------------------------|---------------------------------------|
---------------------------------------|---------------------------------------|
---------------------------------------|---------------------------------------|

"Oh..."
----0---1-0-1-0---------0-0-0-0----|----0---1-0-1-0---------0-0-0-0----|
1-3---1---------3-0-1-3---------3-1|1-3---1---------3-0-1-3---------3-1|
-----------------------------------|-----------------------------------|
-----------------------------------|-----------------------------------|
-----------------------------------|-----------------------------------|
-----------------------------------|-----------------------------------|

"Ra ra ah ah ah..."
----0-0-1-0-----0-0-1-0-----0-0-1-0------------|----0-0-1-0-----0-0-1-0-----0-0-1-0------------|
------------------------------------1-1---1---1|------------------------------------1-1---1---1|
2-2---------2-2---------2-2-------------2---2--|2-2---------2-2---------2-2-------------2---2--|
-----------------------------------------------|-----------------------------------------------|
-----------------------------------------------|-----------------------------------------------|
-----------------------------------------------|-----------------------------------------------|

"Walk, walk fashion baby..."
-------------------------|-------------------------|
-------------------------|-------------------------|
-------------------------|-------------------------|
5-5-5-5-5-5-5-5-5-5-5-5-5|5-5-5-5-5-5-5-5-5-5-5-5-5|
-------------------------|-------------------------|
-------------------------|-------------------------|

"Walk, walk fashion baby..."
-------------------------|-------------------------|
-------------------------|-------------------------|
-------------------------|-------------------------|
5-5-5-5-5-5-5-5-5-5-5-5-5|5-5-5-5-5-5-5-5-5-5-5-5-5|
-------------------------|-------------------------|
-------------------------|-------------------------|

"I want your love..."
----------------------------0-0-0-0----|----------------------------0-0-0-0-0----|
1-0-----1-1-0-0----1-0--------------3-1|1-0-----1-1-0-0-----1-0---------------3-1|
----0-2---------0-------0-2------------|----0-2---------0-------0-2--------------|
------------------2--------------------|------------------2----------------------|
---------------------------------------|-----------------------------------------|
---------------------------------------|-----------------------------------------|

"I don't wanna be friends..."
0-0-0-0-3---8-8-8-8-7-5-3-1-8-8-5-8-5-8|0-0-0-0-----8-8-5-8-5-8|
----------1----------------------------|--------3-1------------|
---------------------------------------|-----------------------|
---------------------------------------|-----------------------|
---------------------------------------|-----------------------|
---------------------------------------|-----------------------|

"I want your love..."
5-5-5-5-5-5-3-3-3-3---------------8-7-5-3|5-5-5-5-5-5-3-3-3-3-----------4------|
--------------------3-3-3-5-5-5-5--------|--------------------3-3-3-5-5---5-3-5|
-----------------------------------------|-------------------------------------|
-----------------------------------------|-------------------------------------|
-----------------------------------------|-------------------------------------|
-----------------------------------------|-------------------------------------|

"Oh..."
----0---1-0-1-0---------0-0-0-0----|----0---1-0-1-0---------0-0-0-0----|
1-3---1---------3-0-1-3---------3-1|1-3---1---------3-0-1-3---------3-1|
-----------------------------------|-----------------------------------|
-----------------------------------|-----------------------------------|
-----------------------------------|-----------------------------------|
-----------------------------------|-----------------------------------|

"Ra ra ah ah ah..."
----0-0-1-0-----0-0-1-0-----0-0-1-0------------|
------------------------------------1-1---1---1|
2-2---------2-2---------2-2-------------2---2--|
-----------------------------------------------|
-----------------------------------------------|
-----------------------------------------------|
Suggest correction
What's this?
You can suggest a correction to this tab. Community and Mods will review your correction and vote to approve or reject it.
comments
print report bad tab
guest
You may want to rate the tab now too:
select rating
Please do not post tabs as comments. Select "correction" instead!