Oops, an error
Loading. Please wait.

Boys Boys Boys Bass Tab

version 3
version 3

Whole song

Interactive

1,071 views 1 this week
no commentswrite comment
1 2 3 4 5
2 more votes to show rating
add to favorites
launch autoscroll
font size
0
reset
guitar tuner
Autoscroll
slow
fast
+/-
esc
set tempo
stop
Help us to improve Ultimate-Guitar.com Take our survey!
×
Author
Difficulty
novice
Boys Boys Boys
Lady Gaga

Intro
G|----------|
D|---44-----|
A|----------|
E|-2----2---|

Verse x3
G|--------------------|
D|---4-------44-------|
A|--------------------|
E|-2---2---2----2-----|

Chorus
G|-------------------------------------|
D|----------22222222-00000000-00000000-|
A|-00000000----------------------------|
E|-------------------------------------|

Verse x4

Chorus x4

Break

Bridge x3
G|--------------|------------|
D|--------------|------------|
A|-----0044--x3-|-3210-------|
E|-2244---------|-----4320---|

Break

Chorus x5
Suggest correction
Give kudos to tab author, rate the tab!
1 2 3 4 5
comments
print report bad tab
guest
You may want to rate the tab now too:
select rating
Wanna post a correction for this tab? Suggest correction