Oops, an error
Loading. Please wait.

Guy Bass Tab

938 views 1 this week
no commentswrite comment
1 2 3 4 5
please rate
add to favorites
launch autoscroll
font size
0
reset
guitar tuner
Tab Pro tools
  • play this tab
  • loop segment
  • change instrument
  • show fretboard
  • metronome
×
Best way to learn
"Guy"
Autoscroll
slow
fast
+/-
esc
set tempo
stop
Contributor
Difficulty
Tuning
intermediate
B E A D F# B
0:26 Intro
G|-------------------------|
D|-------------------------|
A|-----3-3-----------------|
E|---------4---3-------2-3-|
B|-1---------------4-------|x5
   1 + 2 + 3 + 4 + 5 + 6 +

G|-------------------------|
D|-------------------------|
A|-----3-3-----------------|
E|---------4---3-----------|
B|-1---------------4\------|x1
   1 + 2 + 3 + 4 + 5 + 6 +

G|-------------------------|
D|-------------------------|
A|-----3-3-----------------|
E|---------4---3-------2-3-|
B|-1---------------4-------|x1
   1 + 2 + 3 + 4 + 5 + 6 +

G|-------------------------|
D|-------------------------|
A|-----3-3-----------------|
E|---------4---3-----------|
B|-1---------------4\------|x1
   1 + 2 + 3 + 4 + 5 + 6 +

0:43 Pre-Chorus

Rest

1:01 Chorus
G|-----------------------------------------------------------------------|
D|o---------------------------------------------------------------------o|
A|--------------1-3-----------------------------1-3-1---3---4---4--------|
E|o---4---4-4-------1-----------------4---4-4---------------------------o|
B|-----------------------------------------------------------------------|x2
      1 + 2 + 3 + 4 + 1 + 2 + 3 + 4 + 1 + 2 + 3 + 4 + 1 + 2 + 3 + 4 +

1:18
G|-------------------------|
D|-------------------------|
A|-----3-3-----------------|
E|---------4---3-------2-3-|
B|-1----------------4------|x3
   1 + 2 + 3 + 4 + 5 + 6 +

G|-------------------------|
D|-------------------------|
A|-----3-3-----------------|
E|---------4---3-----------|
B|-1-----------------------|x1
   1 + 2 + 3 + 4 + 5 + 6 +

1:27 Verse
G|-------------------------|
D|-------------------------|
A|-----3-3-----------------|
E|---------4---3-------2-3-|
B|-1---------------4-------|x5
   1 + 2 + 3 + 4 + 5 + 6 +

G|-------------------------|
D|-------------------------|
A|-----3-3-----------------|
E|---------4---3-----------|
B|-1---------------4\------|x1
   1 + 2 + 3 + 4 + 5 + 6 +

G|-------------------------|
D|-------------------------|
A|-----3-3-----------------|
E|---------4---3-------2-3-|
B|-1---------------4-------|x1
   1 + 2 + 3 + 4 + 5 + 6 +

G|-------------------------|
D|-------------------------|
A|-----3-3-----------------|
E|---------4---3-----------|
B|-1---------------4\------|x1
   1 + 2 + 3 + 4 + 5 + 6 +

1:44 Pre-Chorus

Rest

2:02 Chorus
G|-----------------------------------------------------------------------|
D|o---------------------------------------------------------------------o|
A|--------------1-3-----------------------------1-3-1---3---4---4--------|
E|o---4---4-4-------1-----------------4---4-4---------------------------o|
B|-----------------------------------------------------------------------|x2
      1 + 2 + 3 + 4 + 1 + 2 + 3 + 4 + 1 + 2 + 3 + 4 + 1 + 2 + 3 + 4 +

2:19 Bridge
G|-----------------------------------------------------------------------|
D|o---------------------------------------------------------------------o|
A|--------------------------------------------6---6----------------------|
E|o---4---4---4---4\--6---6---6---6\--8---8-------------------3---3-----o|
B|----------------------------------------------------4---4--------------|x2
      1 + 2 + 3 + 4 + 1 + 2 + 3 + 4 + 1 + 2 + 3 + 4 + 1 + 2 + 3 + 4 +

2:37 Rest

2:46 Pre-Chorus
G|-----------------------------------------------------------------|
D|-----------------------------------------------------------------|
A|-8---8---8---8---6---6---6---6---5---5---5---5---4---4---4---4---|
E|-----------------------------------------------------------------|
B|-----------------------------------------------------------------|
   1 + 2 + 3 + 4 + 1 + 2 + 3 + 4 + 1 + 2 + 3 + 4 + 1 + 2 + 3 + 4 +

G|-----------------------------------------------------------------|
D|-----------------------------------------------------------------|
A|-8---8---8---8---6---6---6---6---11111111111111111010101010------| [Eleven's and Ten's]
E|-----------------------------------------------------------------|
B|-----------------------------------------------------------------|
   1 + 2 + 3 + 4 + 1 + 2 + 3 + 4 + 1 + 2 + 3 + 4 + 1 + 2 + 3 + 4 +


3:05 Chorus
G|-----------------------------------------------------------------------|
D|o---------------------------------------------------------------------o|
A|--------------1-3-----------------------------1-3-1---3---4---4--------|
E|o---4---4-4-------1-----------------4---4-4---------------------------o|
B|-----------------------------------------------------------------------|x4
      1 + 2 + 3 + 4 + 1 + 2 + 3 + 4 + 1 + 2 + 3 + 4 + 1 + 2 + 3 + 4 +

3:40 Outro
G|-------------------------|
D|-------------------------|
A|-----3-3-----------------|
E|---------4---3-------2-3-|
B|-1---------------4-------|x3
   1 + 2 + 3 + 4 + 5 + 6 +

G|-------------------------|
D|-------------------------|
A|-----3-3-----------------|
E|---------4---3-----------|
B|-1-----------------------|x1
   1 + 2 + 3 + 4 + 5 + 6 +

Tabbed By Jack Mills
comments
We did not receive enough feedback on this tab! Please rate:
print report bad tab
1 2 3 4 5
I want to post or [tab]
guest
You may want to rate the tab now too:
select rating
Please do not post tabs as comments. Select "correction" instead!