Oops, an error
Loading. Please wait.
We have Chord Pro version of Joanne.
It's the closest thing you can get to the original song and it has interactive parts. Check out the tab »
×

Joanne Tab

version 1
version 1

Whole song

  • Tab for acoustic guitar / whole song tabbed out fo... Show more

Interactive

4,597 views 78 this week
1 commentread comment
1 2 3 4 5
x 4
add to favorites
launch autoscroll
font size
0
reset
how to read this tab
guitar tuner
Autoscroll
slow
fast
+/-
esc
set tempo
stop
Author
Difficulty
maguri [tm] 30,259
intermediate
About this tab version
Tab for acoustic guitar / whole song tabbed out for easy auto-scrolling / including variations in the verses, interludes / with outro and coda. Was this info helpful? Yes No
---------------------------------------------------------------------------
          Joanne – Lady Gaga
---------------------------------------------------------------------------
Tabbed by: maguri
Tuning: Standard

Lady Gaga
Joanne (2016)
(Germanotta/Ronson)

From: "Joanne"

Sometimes there’s more than one acoustic guitar, I think. This tab here,
however, offers a reading for one player that recreates the overall feel 
of what is heard. I included the lyrics after the tab. 

The 2+ and 4+ in the | G C | C | part in intro, verses and interlude are 
not clearly defined: these notes are very short (dampened?) maybe just
dead notes. I marked most of these notes by putting them in brackets. 
One has to experiment a little to adjust to the feel here and find 
an individual solution. (I already play it a little different than what
is suggested here, leaving out some notes here and there and adding 
minor stuff in other places ...)

Suggestions, comments and corrections are highly welcome!


---------------------------------------------------------------------------

INTRO
  G       D        C                G       D        C
  1 + 2 + 3 + 4 +  1 + 2 + 3 + 4 +  1 + 2 + 3 + 4 +  1 + 2 + 3 + 4 +  
e|----------------|----------------|----------------|----------------|
B|----------------|--------5-------|----------------|--------5-------|
G|----0-------7---|----5-----5-----|----0-------7---|----5-----5-----|
D|--0-------7--(0)|--5---5-----5---|--0-------7--(0)|--5---5-----5---|
A|--------5-------|3---------------|--------5-------|3------------(3)|
E|3---------------|----------------|3----(3)--------|----------------|


VERSE 1
  G       D        C                G       D        C
  1 + 2 + 3 + 4 +  1 + 2 + 3 + 4 +  1 + 2 + 3 + 4 +  1 + 2 + 3 + 4 +  
e|----------------|----------------|----------------|----------------|
B|----------------|--------5-------|----------------|--------5-------|
G|----0-------7---|----5-----5-----|----0-------7---|----5-----5-----|
D|--0-------7--(0)|--5---5-----5---|--0-------7--(0)|--5---5-----5---|
A|--------5-------|3---------------|--------5-------|3------------(3)|
E|3---------------|----------------|3----(3)--------|----------------|

  D(add11(no5)     Em               C       C/B      Am7
  1 + 2 + 3 + 4 +  1 + 2 + 3 + 4 +  1 + 2 + 3 + 4 +  1 + 2 + 3 + 4 +  
e|--------2-------|--------3-------|----------------|--------0-------|
B|----3-------3---|----0-----0-----|----1-------1---|----1-----1-----|
G|--0---0---0---0-|--0---------0---|--0-------0-----|--0---0-----0---|
D|0---------------|2-----2-------0-|----------------|----------------|
A|----------------|----------------|3----(3)2-----2-|0-------------0-|
E|----------------|----------------|----------------|----------------|
  D     Dsus4 D    D
  1 + 2 + 3 + 4 +  1 + 2 + 3 + 4 +  
e|--------3p2-----|--------2-------|
B|----3-------3---|----3-----3-----|
G|--2-----------2-|--2----------2--|
D|0-----0---------|0-----0------(0)|
A|----------------|----------------|
E|----------------|----------------|


VERSE 2
  G       D        C                G       D        C
  1 + 2 + 3 + 4 +  1 + 2 + 3 + 4 +  1 + 2 + 3 + 4 +  1 + 2 + 3 + 4 +  
e|----------------|----------------|----------------|----------------|
B|----------------|--------5-------|----------------|--------5-------|
G|----0-------7---|----5-----5-----|----0-------7---|----5-----5-----|
D|--0-------7--(0)|--5---5-----5---|--0-------7--(0)|--5---5-----5---|
A|--------5-------|3---------------|--------5-------|3------------(3)|
E|3---------------|----------------|3----(3)--------|----------------|

  G5      G/F#     Em7(no5)         C       C/B       Am7
  1 + 2 + 3 + 4 +  1 + 2 + 3 + 4 +  1 + 2 + 3 + 4 +  1 + 2 + 3 + 4 +  
e|----3-------3---|----3-------3---|----------------|--------0-------|
B|--3-------3-----|--3-------3-----|----1-------1---|----1-----1-----|
G|----------------|----------------|--0-------0-----|--0---0-----0---|
D|5----(5)4----(4)|2----(2)2-----2-|----------------|----------------|
A|----------------|----------------|3-----3-2-----2-|0-------------0-|
E|----------------|----------------|----------------|----------------|
  D     Dsus4 D
  1 + 2 + 3 + 4 +  1 + 2 + 3 + 4 +  
e|--------2-------|--------2-------|
B|----3-----3-----|----3-----3-----|
G|--2---------2---|--2---------2---|
D|0-----0-------0-|0-----0------(0)|
A|----------------|----------------|
E|----------------|----------------|


CHORUS
  Am                     G/B        C                Dadd11(no5)
  1 + 2 + 3 + 4 +  1 + 2 + 3 + 4 +  1 + 2 + 3 + 4 +  1 + 2 + 3 + 4 +  
e|----------------|----------------|----------------|----------------|
B|--------1-------|----------------|--------1-------|----------------|
G|----2-----2-----|----2-------0---|----0-----0-----|----0-------0---|
D|--2---------2---|--2-------0-----|--2---------2---|--2-------4-----|
A|0-----0------(0)|0-----0-2-----2-|3-----3-------3-|3-----3/5-----5-|
E|----------------|----------------|----------------|----------------|
  G5                                D                        Dsus2
  1 + 2 + 3 + 4 +  1 + 2 + 3 + 4 +  1 + 2 + 3 + 4 +  1 + 2 + 3 + 4 +  
e|--------3-------|--------3-------|--------2-------|--------0-------|
B|----------------|----------------|----3-----3-----|----3-----3-----|
G|----0-----0---0-|----0-----0---0-|--2---------2---|--2---------2---|
D|--0---0---------|--0---0---------|0-----0-------0-|0-----0-------0-|
A|----------------|----------------|----------------|----------------|
E|3-----------3---|3-----------3---|----------------|----------------|
  Am                     G/B        C                Dadd11(no5)
  1 + 2 + 3 + 4 +  1 + 2 + 3 + 4 +  1 + 2 + 3 + 4 +  1 + 2 + 3 + 4 +  
e|----------------|----------------|----------------|----------------|
B|--------1-------|----------------|--------1-------|----------------|
G|----2-----2-----|----2-------0---|----0-----0-----|----0-------0---|
D|--2---------2---|--2-------0-----|--2---------2---|--2-------4-----|
A|0-----0------(0)|0-----0-2-----2-|3-----3-------3-|3-----3/5-----5-|
E|----------------|----------------|----------------|----------------|
  G5               Fsus2            C
  1 + 2 + 3 + 4 +  1 + 2 + 3 + 4 +  1 + 2 + 3 + 4 +  1 + 2 + 3 + 4 +  
e|--------3-------|----------------|----------------|----------------|
B|----------------|----------------|----------------|----------------|
G|----0-----0---0-|--------0-------|----0-----0-----|----0-----0-----|
D|--0---0---------|----3-----3-----|--2-----2-----2-|--2-----2-----2-|
A|----------------|--3-----------3-|3-----3-----3---|3-----3-----3---|
E|3-----------3---|1-----1-----1---|----------------|----------------|


INTERLDUE
  G       D        C                G       D        C
  1 + 2 + 3 + 4 +  1 + 2 + 3 + 4 +  1 + 2 + 3 + 4 +  1 + 2 + 3 + 4 +  
e|----------------|----------------|----------------|----------------|
B|----------------|--------5-------|----------------|--------5-------|
G|----0-------7---|----5-----5-----|----0-------7---|----5-----5-----|
D|--0-------7--(0)|--5---5-----5---|--0-------7--(0)|--5---5-----5---|
A|--------5-------|3---------------|--------5-------|3------------(3)|
E|3---------------|----------------|3----(3)--------|----------------|


VERSE 3
  G       D        C                G       D        C
  1 + 2 + 3 + 4 +  1 + 2 + 3 + 4 +  1 + 2 + 3 + 4 +  1 + 2 + 3 + 4 +  
e|----------------|----------------|----------------|----------------|
B|----------------|--------5-------|----------------|--------5-------|
G|----0-------7---|----5-----5-----|----0-------7---|----5-----5-----|
D|--0-------7--(0)|--5---5-----5---|--0-------7--(0)|--5---5-----5---|
A|--------5-------|3---------------|--------5-------|3------------(3)|
E|3---------------|----------------|3----(3)--------|----------------|

  D(add11(no5)     Em               C       C/B      Am7
  1 + 2 + 3 + 4 +  1 + 2 + 3 + 4 +  1 + 2 + 3 + 4 +  1 + 2 + 3 + 4 +  
e|--------2-------|--------3p0-----|----------------|--------0-------|
B|----3-------3---|----0-----------|----1-------1---|----1-----1-----|
G|--0---0---0---0-|--0---------0---|--0-------0-----|--0---0-----0---|
D|0---------------|2-----2-------0-|----------------|----------------|
A|----------------|----------------|3----(3)2----(2)|0------------(0)|
E|----------------|----------------|----------------|----------------|
  D     Dsus4 D    D
  1 + 2 + 3 + 4 +  1 + 2 + 3 + 4 +  
e|--------3p2-----|--------2-------|
B|----3-------3---|----3-----3-----|
G|--2-----------2-|--2---------2---|
D|0-----0---------|0-----0-------0-|
A|----------------|----------------|
E|----------------|----------------|


VERSE 4
   G       D        C                G       D        C
  1 + 2 + 3 + 4 +  1 + 2 + 3 + 4 +  1 + 2 + 3 + 4 +  1 + 2 + 3 + 4 +  
e|----------------|----------------|----------------|----------------|
B|----------------|--------5-------|----------------|--------5-------|
G|----0-------7---|----5-----5-----|----0-------7---|----5-----5-----|
D|--0-------7--(0)|--5---5-----5---|--0-------7--(0)|--5---5-----5---|
A|--------5-------|3---------------|--------5-------|3------------(3)|
E|3---------------|----------------|3----(3)--------|----------------|

  G5      G/F#     Em7(no5)         C       C/B       Am7
  1 + 2 + 3 + 4 +  1 + 2 + 3 + 4 +  1 + 2 + 3 + 4 +  1 + 2 + 3 + 4 +  
e|----3-------3---|----3-------3---|----------------|--------0-------|
B|--3-------3-----|--3-------3-----|----1-------1---|----1-----1-----|
G|----------------|----------------|--0-------0-----|--0---0-----0---|
D|5----(5)4----(4)|2----(2)2-----2-|----------------|----------------|
A|----------------|----------------|3----(3)2----(2)|0-------------0-|
E|----------------|----------------|----------------|----------------|
  D     Dsus4 D
  1 + 2 + 3 + 4 +  1 + 2 + 3 + 4 +  
e|--------2-------|--------2-------|
B|----3-----3-----|----3-----3-----|
G|--2---------2---|--2---------2---|
D|0-----0-------0-|0-----0------(0)|
A|----------------|----------------|
E|----------------|----------------|


CHORUS
  Am                     G/B        C                Dadd11(no5)
  1 + 2 + 3 + 4 +  1 + 2 + 3 + 4 +  1 + 2 + 3 + 4 +  1 + 2 + 3 + 4 +  
e|----------------|----------------|----------------|----------------|
B|--------1-------|----------------|--------1-------|----------------|
G|----2-----2-----|----2-------0---|----0-----0-----|----0-------0---|
D|--2---------2---|--2-------0-----|--2---------2---|--2-------4-----|
A|0-----0-------0-|0-----0-2-----2-|3-----3-------3-|3-----3/5-----5-|
E|----------------|----------------|----------------|----------------|
  G5                                D                        Dsus2
  1 + 2 + 3 + 4 +  1 + 2 + 3 + 4 +  1 + 2 + 3 + 4 +  1 + 2 + 3 + 4 +  
e|--------3-------|--------3-------|--------2-------|--------0-------|
B|----------------|----------------|----3-----3-----|----3-----3-----|
G|----0-----0---0-|----0-----0---0-|--2---------2---|--2---------2---|
D|--0---0---------|--0---0---------|0-----0-------0-|0-----0-------0-|
A|----------------|----------------|----------------|----------------|
E|3-----------3---|3-----------3---|----------------|----------------|
  Am                     G/B        C                Dadd11(no5)
  1 + 2 + 3 + 4 +  1 + 2 + 3 + 4 +  1 + 2 + 3 + 4 +  1 + 2 + 3 + 4 +  
e|----------------|----------------|----------------|----------------|
B|--------1-------|----------------|--------1-------|----------------|
G|----2-----2-----|----2-------0---|----0-----0-----|----0-------0---|
D|--2---------2---|--2-------0-----|--2---------2---|--2-------4-----|
A|0-----0-------0-|0-----0-2-----2-|3-----3-------3-|3-----3/5-----5-|
E|----------------|----------------|----------------|----------------|
  G5               Fsus2            C
  1 + 2 + 3 + 4 +  1 + 2 + 3 + 4 +  1 + 2 + 3 + 4 +  1 + 2 + 3 + 4 +  
e|--------3-------|----------------|----------------|----------------|
B|----------------|----------------|----------------|--------1-------|
G|----0-----0---0-|--------0-------|----0-----0-----|----0-----0-----|
D|--0---0---------|----3-----3---3-|--2-----2-----2-|--2---2-----2---|
A|----------------|--3-------------|3-----3-----3---|3-------------3-|
E|3-----------3---|1-----1-----1---|----------------|----------------|


MIDDLE 8
  Em                       Em/D     G
  1 + 2 + 3 + 4 +  1 + 2 + 3 + 4 +  1 + 2 + 3 + 4 +  1 + 2 + 3 + 4 +  
e|--12----12----12|--12----12----12|--10----10----10|--10----10----10|
B|----12----12----|----12----12----|----12----12----|----12----10----|
G|------12--------|------12--------|0-----0-----0---|0-----0-----0---|
D|----------------|-------(0)------|----------------|----------------|
A|----------------|----------------|----------------|----------------|
E(0)--------------(0)--------------|----------------|----------------|
  C5                       C/B      Am
  1 + 2 + 3 + 4 +  1 + 2 + 3 + 4 +  1 + 2 + 3 + 4 +  1 + 2 + 3 + 4 +  
e|--8-----8-----8-|--8-------8-----|--5-----5-----5-|--5-----5-------|
B|----8-----8-----|----8-------8---|----5-----5-----|----5-----5-----|
G|----------------|----------------|------5-----5---|------5-----5/--|
D|10----10----10--|10----109-----9-|----------------|----------------|
A|----------------|----------------(0)--------------(0)--------------|
E|----------------|----------------|----------------|----------------|
  Em                       Dsus4    G
  1 + 2 + 3 + 4 +  1 + 2 + 3 + 4 +  1 + 2 + 3 + 4 +  1 + 2 + 3 + 4 +  
e|--12----12----12|--12----10----10|--10----10----10|--10----10----10|
B|----12----12----|----12----10----|----12----12----|----12----10----|
G/12----12--------|------12--------|0-----0-----0---|0-----0-----0---|
D|----------------|-------(0)--(0)-|----------------|----------------|
A|----------------|----------------|----------------|----------------|
E(0)--------------(0)--------------|----------------|----------------|
  C5                       C/B      Am7 
  1 + 2 + 3 + 4 +  1 + 2 + 3 + 4 +  1 + 2 + 3 + 4 +  1 + 2 + 3 + 4 +  1 + 2 + 3 + 4 +  
e|--8-----8-----8-|--8-----8-------|0---------------|----------------|----------------|
B|----8-----8-----|----8-----8-----|1---------------|----------------|----------------|
G|----------------|----------------|0---------------|----------------|----------------|
D|10----10----10--|9-----9-----9\--|2---------------|----------------|----------------|
A|----------------|----------------|0---------------|----------------|----------------|
E|----------------|----------------|----------------|----------------|----------------|
                                    (let ring)

CHORUS
  Am                     G/B        C                Dadd11(no5)
  1 + 2 + 3 + 4 +  1 + 2 + 3 + 4 +  1 + 2 + 3 + 4 +  1 + 2 + 3 + 4 +  
e|----------------|----------------|----------------|----------------|
B|--------1-------|----------------|--------1-------|----------------|
G|----2-----2-----|----2-------0---|----0-----0-----|----0-------0---|
D|--2---------2---|--2-------0-----|--2---------2---|--2-------4-----|
A|0-----0-------0-|0-----0-2-----2-|3-----3-------3-|3-----3/5-----5-|
E|----------------|----------------|----------------|----------------|
  G5                                D                        Dsus2
  1 + 2 + 3 + 4 +  1 + 2 + 3 + 4 +  1 + 2 + 3 + 4 +  1 + 2 + 3 + 4 +  
e|--------3-------|--------3-------|--------2-------|--------0-------|
B|----------------|----------------|----3-----3-----|----3-----3-----|
G|----0-----0---0-|----0-----0---0-|--2---------2---|--2---------2---|
D|--0---0---------|--0---0---------|0-----0-------0-|0-----0-------0-|
A|----------------|----------------|----------------|----------------|
E|3-----------3---|3-----------3---|----------------|----------------|
  Am                     G/B        C                Dadd11(no5)
  1 + 2 + 3 + 4 +  1 + 2 + 3 + 4 +  1 + 2 + 3 + 4 +  1 + 2 + 3 + 4 +  
e|----------------|----------------|----------------|----------------|
B|--------1-------|----------------|--------1-------|----------------|
G|----2-----2-----|----2-------0---|----0-----0-----|----0-------0---|
D|--2---------2---|--2-------0-----|--2---------2---|--2-------4-----|
A|0-----0-------0-|0-----0-2-----2-|3-----3-------3-|3-----3/5-----5-|
E|----------------|----------------|----------------|----------------|
  G5               Fsus2            C
  1 + 2 + 3 + 4 +  1 + 2 + 3 + 4 +  1 + 2 + 3 + 4 +  1 + 2 + 3 + 4 +  
e|--------3-------|----------------|----------------|----------------|
B|----------------|----------------|----------------|--------1-------|
G|----0-----0---0-|--------0-------|----0-----0-----|----0-----0-----|
D|--0---0---------|----3-----3---3-|--2-----2-----2-|--2---2-----2---|
A|----------------|--3-------------|3-----3-----3---|3-------------3-|
E|3-----------3---|1-----1-----1---|----------------|----------------|


OUTRO
  G5               Fsus2            C
  1 + 2 + 3 + 4 +  1 + 2 + 3 + 4 +  1 + 2 + 3 + 4 +  1 + 2 + 3 + 4 +  
e|--------3-------|----------------|----------------|----------------|
B|----------------|----------------|----------------|--------1-------|
G|--0---0---0---0-|--------0-------|----0-----0-----|----0-----0-----|
D|----0-------0---|----3-----3---3-|--2-----2-----2-|--2---2-----2---|
A|----------------|--3-------------|3-----3-----3---|3-------------3-|
E|3---------------|1-----1-----1---|----------------|----------------|


CODA
  G
  1 + 2 + 3 + 4 +  1 + 2 + 3 
e|------7-------7-|--7-----7-------|
B|----------8-----|--------8-------|
G|----7-----------|--------7-------|
D|0-------0---0---|0---0-----------|
A|----------------|----------------|
E|----------------|----------------|
  (let ring throughout)


************************************

| (n) Ghost note or optional note
| p   Pull-off
| /   Slide up
| \   Slide down

************************************


---------------------------------------------------------------------------

LYRICS

Take my hand
Stay, Joanne
Heaven’s not
Ready for you

Every part of my
Aching heart
Needs you more
Than the angels do

Girl, where do you think you're going?
Where do you think you're going, going, girl?
Girl, where do you think you're going?
Where do you think you're going, going, girl?

If you could
I know that you’d stay
We both know
Things don’t work that way

I promised I
Wouldn’t say goodbye
So I grin
And my voice gets thin

Girl, where do you think you're going?
Where do you think you're going, going, girl?
Girl, where do you think you're going?
Where do you think you're going, going, girl?

Honestly I know where you’re going
And baby you’re just moving on

And I’ll still love you even if I can’t
See you anymore
Can’t wait to see you soar

Girl, where do you think you're going?
Where do you think you're going, going, girl?
Girl, where do you think you're going?
Where do you think you're going, going, girl?
Suggest correction
comments
print report bad tab
1 comment total.
0 reply
fletcher.harold.oakes 204 Nov 06, 2016 09:51 AM

Perfect! Thanks for saving me the time!

guest
You may want to rate the tab now too:
select rating
Wanna post a correction for this tab? Suggest correction