Oops, an error
Loading. Please wait.
We have Chord Pro version of Joanne.
It's the closest thing you can get to the original song and it has interactive parts. Check out the tab »
×

Joanne tab

version 2
version 2

Whole song

  • Tab for acoustic guitar / whole song tabbed out fo... Show more

Interactive

1,123 views 21 this week
no commentswrite comment
1 2 3 4 5
x 6
add to favorites
×
Save as Personal and add changes to this tab that will be seen only by you. Learn more ›
×
You can save this tab as Personal to edit and correct it or add notes. All changes will be seen only by you. Learn more »
launch autoscroll
font size
0
reset
how to read this tab
guitar tuner
edit
Autoscroll
slow
fast
+/-
esc
set tempo
stop
Author
Difficulty
Verse Tips:
- The verses in this tab use the chord voicings Mark Ronson / Tim Stewart play in the studio version
and in live performances
- For speed and comfort when playing C6 and D6, your 3rd finger only has to bar strings D, G, and B
- When playing C5, Mark Ronson stays in position and moves his 1st finger back to the 2nd fret to play B
- Use the standard fingering for D when playing Dsus4, except you'll place your 4th finger on the 1st string
and 3rd fret and then remove it to pull-off / quickly switch to D
- the D (xx0232) in the G D Em progression can also be easily played by barring the seventh fret = xx777x

Chorus Tips:
- The chorus in this tab is modified to sound better when played solo / with a vocal, however, if you 
prefer the studio version, skip from the bass note of each chord to its higher notes in a pattern that's more 
contrastive than this version
- For a faster transition from Am to Em9, simply move your 2nd finger to the 5th string and 2nd fret to play
B
- For a faster transition from C to Dadd4, keep your 2nd and 3rd fingers in position and slide up to 
the 5th fret

Breakdown Tips:
- The guitars in the studio version are a little distorted and sound quite staccato, which makes it fun
to experiment with and try different picking patterns
- If there are too many chord switches holding you back here, you can get away with leaving out D6 both times
and Bm when she sings "and baby you're just movin' on".

Chord Fingering / Voicings 

Verse Chords:          Chorus Chords:         Breakdown Chords:      Outro Chords:     

G5     355xxx          Am     x02210          Em     x79987          G      355433
D5     x577xx          Em9    x200xx          D6     x5777x          F      133211
C6     x3555x          C      x32010          G      355433          C      x32010
D6     x5777x          Dadd4  x540xx          C6     x3555x          G6add9 320033
Em     x79987          G6add9 320033          Bm     x24432
C5     x355xx          D      xx0232          Am     x02210
Dsus4  xx0233          Dsus2  xx0230
D      xx0232          F      133211
G      xx543x
Em     xxx453

[Intro]

  G5     D5     C6             G5     D5     C6 
e|----------------------------|----------------------------|
B|----------------------5-----|----------------------5-----|
G|-----------7------5-----5---|-----------7------5-----5---|
D|----5----7------5---------5-|----5----7------5---------5-|
A|--5----5------3-----3-------|--5----5------3-----3-------|
E|3---------------------------|3---------------------------|


[Verse 1] 


  G5     D5     C6             G5     D5     C6 
  Take   my     hand           stay   Joanne
e|----------------------------|----------------------------|
B|----------------------5-----|----------------------5-----|
G|-----------7------5-----5---|-----------7------5-----5---|
D|----5----7------5---------5-|----5----7------5---------5-|
A|--5----5------3-----3-------|--5----5------3-----3-------|
E|3---------------------------|3---------------------------|
  
  D6             Em             C5                          Dsus4   D   
  Heaven's       not            ready                 for you    
e|----------------------------|----------------------------|------3p2------------2------|
B|--------7--------------8----|----------------------------|--3-------3------3-----3----|
G|----7-----7--------9-----9--|-----5------5------5------5-|----2-------2------2-----2--|
D|--7---------7----9---------9|---5------5------5------5---|0--------------0------------|
A|5-----5--------7-----7------|-3------2------3------2-----|----------------------------|
E|----------------------------|----------------------------|----------------------------|

  G5     D5     C6             G5      D5   C6 
  Every         part of my     aching       heart 
e|----------------------------|----------------------------|
B|----------------------5-----|----------------------5-----|
G|-----------7------5-----5---|-----------7------5-----5---|
D|----5----7------5---------5-|----5----7------5---------5-|
A|--5----5------3-----3-------|--5----5------3-----3-------|
E|3---------------------------|3---------------------------|
   
  G       D     Em              C5                          D 
  Needs   you   more            than the angels           do        
e|------------2-----3------3--|----------------------------|-------2-------------2------|
B|----3-----3-----5------5----|----------------------------|--3------3------3------3----|
G|--4-----2-----4------4------|-----5------5------5------5-|----2------2------2------2--|
D|5---------------------------|---5------5------5------5---|0-------------0-------------|
A|----------------------------|-3------2------3------2-----|----------------------------|
E|----------------------------|----------------------------|----------------------------|


[Chorus]


  Am                   Em9      C                    Dadd4  
  Girl, where do you think you're going, where do you think you're
e|----------------------------|----------------------------|
B|--------1-----1-------------|--------1-----1-------------|
G|----2-----2-----2---------0-|----0-----0-----0---------0-|
D|--2---------------2-----0---|--2---------------2-----4---|
A|0-----0-----0---------2-----|3-----3-----3---------5-----|
E|----------------------------|----------------------------|

  G6add9                       D             Dsus2
  goin'       goin'           girl
e|----------------------------|--------2-----0-------0-----|
B|--------3-----3---------3---|----3-----3-----3-------3---|
G|----0-----0-----0---------0-|--2---------------2-------2-|
D|--0---------------0---------|0-----0-----0--------0------|
A|2-----2-----2---------------|----------------------------|
E|----------------------3-----|----------------------------|
 
  Am                   Em9     C                     Dadd4  
  Girl, where do you think you're going, where do you think you're
e|----------------------------|----------------------------|
B|--------1-----1-------------|--------1-----1-------------|
G|----2-----2-----2---------0-|----0-----0-----0---------0-|
D|--2---------------2-----0---|--2---------------2-----4---|
A|0-----0-----0---------2-----|3-----3-----3---------5-----|
E|----------------------------|----------------------------|

  G6add9         F              C
  goin'         goin'         girl
e|----------------------------|----------------------------|
B|--------3--------------1----|--------1-----1--------1----|
G|----0-----0--------2-----2--|----0-----0-----0--------0--|
D|--0---------0----3---------3|--2---------------2---------|
A|----------------------------|3-----3-----3--------3------|
E|3-----3--------1-----1------|----------------------------|


[Bridge]


   G5     D5     C6             G5     D5     C6 
e|----------------------------|----------------------------|
B|----------------------5-----|----------------------5-----|
G|-----------7------5-----5---|-----------7------5-----5---|
D|----5----7------5---------5-|----5----7------5---------5-|
A|--5----5------3-----3-------|--5----5------3-----3-------|
E|3---------------------------|3---------------------------|


[Verse 2]


  G5     D5     C6             G5     D5     C6 
  If     you    could    I know that  you'd  stay 
e|----------------------------|----------------------------|
B|----------------------5-----|----------------------5-----|
G|-----------7------5-----5---|-----------7------5-----5---|
D|----5----7------5---------5-|----5----7------5---------5-|
A|--5----5------3-----3-------|--5----5------3-----3-------|
E|3---------------------------|3---------------------------|
  

  D6             Em             C5                          Dsus4   D  
  We    both    know           things  don't  work  that  way
e|----------------------------|----------------------------|------3p2------------2------|
B|--------7--------------8----|----------------------------|--3-------3------3-----3----|
G|----7-----7--------9-----9--|-----5------5------5------5-|----2-------2------2-----2--|
D|--7---------7----9---------9|---5------5------5------5---|0--------------0------------|
A|5-----5--------7-----7------|-3------2------3------2-----|----------------------------|
E|----------------------------|----------------------------|----------------------------|

  G5     D5     C6               G5   D5     C6 
  I   promised   I             wouldn't say goodbye
e|----------------------------|----------------------------|
B|----------------------5-----|----------------------5-----|
G|-----------7------5-----5---|-----------7------5-----5---|
D|----5----7------5---------5-|----5----7------5---------5-|
A|--5----5------3-----3-------|--5----5------3-----3-------|
E|3---------------------------|3---------------------------|
  
  G       D     Em              C5                          D   
  So      I     grin           and   my   voice   gets   thin
e|------------2-----3------3--|----------------------------|-------2-------------2------|
B|----3-----3-----5------5----|----------------------------|--3------3------3------3----|
G|--4-----2-----4------4------|-----5------5------5------5-|----2------2------2------2--|
D|5---------------------------|---5------5------5------5---|0-------------0-------------|
A|----------------------------|-3------2------3------2-----|----------------------------|
E|----------------------------|----------------------------|----------------------------|


[Chorus]


  Am                   Em9      C                     Dadd4  
  Girl, where do you think you're going, where do you think you're
e|----------------------------|----------------------------|
B|--------1-----1-------------|--------1-----1-------------|
G|----2-----2-----2---------0-|----0-----0-----0---------0-|
D|--2---------------2-----0---|--2---------------2-----4---|
A|0-----0-----0---------2-----|3-----3-----3---------5-----|
E|----------------------------|----------------------------|

  G6add9                       D             Dsus2
  goin'       goin'           girl
e|----------------------------|--------2-----0-------0-----|
B|--------3-----3---------3---|----3-----3-----3-------3---|
G|----0-----0-----0---------0-|--2---------------2-------2-|
D|--0---------------0---------|0-----0-----0--------0------|
A|2-----2-----2---------------|----------------------------|
E|----------------------3-----|----------------------------|
 
  Am                   Em9     C                      Dadd4  
  Girl, where do you think you're going, where do you think you're
e|----------------------------|----------------------------|
B|--------1-----1-------------|--------1-----1-------------|
G|----2-----2-----2---------0-|----0-----0-----0---------0-|
D|--2---------------2-----0---|--2---------------2-----4---|
A|0-----0-----0---------2-----|3-----3-----3---------5-----|
E|----------------------------|----------------------------|

  G6add9         F              C
  goin'         goin'         girl
e|----------------------------|----------------------------|
B|--------3--------------1----|--------1-----1--------1----|
G|----0-----0--------2-----2--|----0-----0-----0--------0--|
D|--0---------0----3---------3|--2---------------2---------|
A|----------------------------|3-----3-----3--------3------|
E|3-----3--------1-----1------|----------------------------|


[Breakdown]


  Em                    D6     G 
  Honestly  I   know   where you're going
e|--7------7----7-------------|----------------------------|
B|----8------8----8-------7---|----3-----3-----3-------3---|
G|------9-----------9-------7-|------4-----4-----4-------4-|
D|----------------------------|--------5-----------5-------|
A|7------------7--------5-----|----------------------------|
E|----------------------------|--3-----------3-------3-----|

  C6                  Bm       Am
  And baby you're just movin' on
e|----------------------------|---0-----0-----0--------0---|
B|--5-----5-----5--------3----|-----1-----1-----1--------1-|
G|----5-----5-----5--------4--|-------2-----------2--------|
D|------5-----------5---------|-2-----------2--------2-----|
A|3-----------3--------2------|----------------------------|
E|----------------------------|----------------------------|

  Em                    D6     G
  And I'll still love you even if I can't
e|--7------7----7-------------|----------------------------|
B|----8------8----8-------7---|----3-----3-----3-------3---|
G|------9-----------9-------7-|------4-----4-----4-------4-|
D|----------------------------|--------5-----------5-------|
A|7------------7--------5-----|----------------------------|
E|----------------------------|--3-----------3-------3-----|

  C6             Bm            Am
  See   you   anymore,  cant   wait   to   see   you  soar
e|----------------------------|-0--------------------------|
B|--5-----5--------3-----3----|-1--------------------------|
G|----5-----5--------4-----4--|-2--------------------------|
D|------5-----5--------4-----4|-2--------------------------|
A|3--------------2------------|----------------------------|
E|----------------------------|----------------------------|


[Chorus]


  Am                   Em9     C                     Dadd4  
  Girl, where do you think you're going, where do you think you're
e|----------------------------|----------------------------|
B|--------1-----1-------------|--------1-----1-------------|
G|----2-----2-----2---------0-|----0-----0-----0---------0-|
D|--2---------------2-----0---|--2---------------2-----4---|
A|0-----0-----0---------2-----|3-----3-----3---------5-----|
E|----------------------------|----------------------------|

  G6add9                       D             Dsus2
  goin'       goin'           girl
e|----------------------------|--------2-----0-------0-----|
B|--------3-----3---------3---|----3-----3-----3-------3---|
G|----0-----0-----0---------0-|--2---------------2-------2-|
D|--0---------------0---------|0-----0-----0--------0------|
A|2-----2-----2---------------|----------------------------|
E|----------------------3-----|----------------------------|
 
  Am                   Em9     C                     Dadd4  
  Girl, where do you think you're going, where do you think you're
e|----------------------------|----------------------------|
B|--------1-----1-------------|--------1-----1-------------|
G|----2-----2-----2---------0-|----0-----0-----0---------0-|
D|--2---------------2-----0---|--2---------------2-----4---|
A|0-----0-----0---------2-----|3-----3-----3---------5-----|
E|----------------------------|----------------------------|

  G6add9         F             C
  goin'         goin'         girl
e|----------------------------|----------------------------|
B|--------3--------------1----|--------1-----1--------1----|
G|----0-----0--------2-----2--|----0-----0-----0--------0--|
D|--0---------0----3---------3|--2---------------2---------|
A|----------------------------|3-----3-----3--------3------|
E|3-----3--------1-----1------|----------------------------|


[Outro]

  G              F              C                           G6add9
e|--------3--------------1----|--0-----0-----0--------1----|--3-----3-------3-----------|
B|--3-------4------1-------2--|----1-----1-----1--------0--|----3-----3---3-------------|
G|----4-------4------2-------2|------0-----------0---------|------------0---------------|
D|------5--------------3------|----------------------------|------0---------0-----------|
A|----------------------------|3-----------3--------3------|----------------------------|
E|3--------------1------------|----------------------------|3---------------------------|




            
            
Suggest correction
Creating personal tab
Creating personal tab
You can edit any tab online and save it as your Personal.

You can edit, replace or remove any tab part or add personal notes – all changes will be seen only by you.

Personal tabs can be accessed anytime from any device, even offline.
Learn more »
comments
print report bad tab
guest
You may want to rate the tab now too:
select rating
Wanna post a correction for this tab? Suggest correction