Oops, an error
Loading. Please wait.

Manicure Bass Tab

1,627 views 3 this week
no commentswrite comment
1 2 3 4 5
please rate
add to favorites
launch autoscroll
font size
0
reset
guitar tuner
Autoscroll
slow
fast
+/-
esc
set tempo
stop
Help us to improve Ultimate-Guitar.com Take our survey!
×
Author
Difficulty
Tuning
novice
B E A D F# B
0:00 Intro
G|-----------------------------------------------------------------|
D|-----------------------------------------------------------------|
A|-----------------------------------------------------------------|
E|-2-------------------------------2-------------------------------|
B|-----------------------------------------------------------------|
   1 + 2 + 3 + 4 + 1 + 2 + 3 + 4 + 1 + 2 + 3 + 4 + 1 + 2 + 3 + 4 + 

G|-----------------------------------------------------------------|
D|-----------------------------------------------------------------|
A|---------------------------------0-------2-----------------------|
E|--------------0002-------------------------------2---------------|
B|-------------------------3-------------------------------3-------|
   1 + 2 + 3 + 4 + 1 + 2 + 3 + 4 + 1 + 2 + 3 + 4 + 1 + 2 + 3 + 4 + 

G|-----------------|
D|-----------------|
A|-0-------2-------|
E|-----------------|
B|-----------------|
   1 + 2 + 3 + 4 +

0:28 Chorus
G|-----------------------------------------------------------------------|
D|o---------------------------------------------------------------------o|
A|--------------------0-0-0-0-0-0-0-0------------------------------------|
E|o---2-2-2-2-2-2-2-4-----------------0-0-0-0-0-0-0-0---------------2---o|
B|----------------------------------------------------2-2-2-2-2-2-2------|x3
      1 + 2 + 3 + 4 + 1 + 2 + 3 + 4 + 1 + 2 + 3 + 4 + 1 + 2 + 3 + 4 + 

0:42 
G|-----------------------------------------------------------------|
D|-----------------------------------------------------------------|
A|-----------------0-0-0-0-0-0-0-0-4---2-----------7---4-----------|
E|-2-2-2-2-2-2-2-4-------------------------------------------------|
B|-------------------------------------------------------------5---|
   1 + 2 + 3 + 4 + 1 + 2 + 3 + 4 + 1 + 2 + 3 + 4 + 1 + 2 + 3 + 4 + 

0:56 Verse
G|-----------------------------------------------------------------|
D|-----------------------------------------------------------------|
A|-----------------------------------------------------------------|
E|---------------------------------2-----------------------------0-|
B|-7---------------------------------------------------------------|
   1 + 2 + 3 + 4 + 1 + 2 + 3 + 4 + 1 + 2 + 3 + 4 + 1 + 2 + 3 + 4 + 

G|-----------------------------------------------------------------|
D|-----------------------------------------------------------------|
A|-----------------0-------2-----------------------0-------2-------|
E|-2-----------------------------0-2-------------------------------|
B|---------3-------------------------------3-----------------------|
   1 + 2 + 3 + 4 + 1 + 2 + 3 + 4 + 1 + 2 + 3 + 4 + 1 + 2 + 3 + 4 +

1:24 Chorus
G|-----------------------------------------------------------------------|
D|o---------------------------------------------------------------------o|
A|--------------------0-0-0-0-0-0-0-0------------------------------------|
E|o---2-2-2-2-2-2-2-4-----------------0-0-0-0-0-0-0-0---------------2---o|
B|----------------------------------------------------2-2-2-2-2-2-2------|x3

1:45
G|-----------------------------------------------------------------|
D|-----------------------------------------------------------------|
A|-----------------0-0-0-0-0-0-0-0-4-4-2-2-2-2-2-2-7-7-4-----------|
E|-2-2-2-2-2-2-2-4-------------------------------------------0-2---|
B|-----------------------------------------------------------------|
   1 + 2 + 3 + 4 + 1 + 2 + 3 + 4 + 1 + 2 + 3 + 4 + 1 + 2 + 3 + 4 + 

Rest


2:13 Chorus
G|-----------------------------------------------------------------------|
D|o---------------------------------------------------------------------o|
A|--------------------0-0-0-0-0-0-0-0------------------------------------|
E|o---2-2-2-2-2-2-2-4-----------------0-0-0-0-0-0-0-0---------------2---o|
B|----------------------------------------------------2-2-2-2-2-2-2------|x3
      1 + 2 + 3 + 4 + 1 + 2 + 3 + 4 + 1 + 2 + 3 + 4 + 1 + 2 + 3 + 4 + 
2:34
G|-----------------------------------------------------------------|
D|-----------------------------------------------------------------|
A|-----------------0-0-0-0-0-0-0-0-4-4-2-2-2-2-2-2-7-7-4-----------|
E|-2-2-2-2-2-2-2-4-------------------------------------------0-2---|
B|-----------------------------------------------------------------|
   1 + 2 + 3 + 4 + 1 + 2 + 3 + 4 + 1 + 2 + 3 + 4 + 1 + 2 + 3 + 4 + 

Rest

2:47 Outro
G|-----------------------------------------------------------------------|
D|o---------------------------------------------------------------------o|
A|--------------------0-------------0------------------------------------|
E|o---2-------------4-----------------0-------------0---------------2---o|
B|----------------------------------------------------2-----------2------|x3
      1 + 2 + 3 + 4 + 1 + 2 + 3 + 4 + 1 + 2 + 3 + 4 + 1 + 2 + 3 + 4 + 
3:01
G|-----------------------------------------------------------------|
D|-----------------------------------------------------------------|
A|-----------------0-------------0---------------------------------|
E|-2-------------4-----------------0-------------0-----------------|
B|-------------------------------------------------2---------------|
   1 + 2 + 3 + 4 + 1 + 2 + 3 + 4 + 1 + 2 + 3 + 4 + 1 + 2 + 3 + 4 + 

Tabbed By Jack Mills
Suggest correction
Give kudos to tab author, rate the tab!
1 2 3 4 5
comments
print report bad tab
guest
You may want to rate the tab now too:
select rating
Wanna post a correction for this tab? Suggest correction