Oops, an error
Loading. Please wait.

Poker Face Bass Tab

version 1
version 1

Whole song

76,608 views 48 this week
3 commentsread comments
1 2 3 4 5
x 13
add to favorites
launch autoscroll
font size
0
reset
guitar tuner
×
Best way to learn
"Poker Face"
Autoscroll
slow
fast
+/-
esc
set tempo
stop
Author
Difficulty
  follow
intermediate
[Intro]
G|--------------------------------|
D|-6-6-------------6-6------------|
A|---------6-6---------7--9-9-----|
E|-----4-4-----4-4------7-----2-2-|

G|---------------------|
D|-6-6-------------6-6-|
A|---------6-6---------|
E|-----4-4-----4-4-----|

[Chorus]
G|---------------------------------|
D|---------22222222----------------|
A|--------2--------22222-421111111-|
E|-4444444--------------2----------|

[Verse] (x10)
G|--------------------------------|
D|-6-6-------------6-6------------|
A|---------6-6---------7--9-9-----|
E|-----4-4-----4-4------7-----2-2-|

[Chorus] (x2)
G|---------------------------------|
D|---------22222222----------------|
A|--------2--------22222-421111111-|
E|-4444444--------------2----------|

[Verse] (x10)
G|--------------------------------|
D|-6-6-------------6-6------------|
A|---------6-6---------7--9-9-----|
E|-----4-4-----4-4------7-----2-2-|

[Chorus] (x2)
G|---------------------------------|
D|---------22222222----------------|
A|--------2--------22222-421111111-|
E|-4444444--------------2----------|

[Verse] (x8)
G|--------------------------------|
D|-6-6-------------6-6------------|
A|---------6-6---------7--9-9-----|
E|-----4-4-----4-4------7-----2-2-|

[Chorus]
G|---------------------------------|
D|---------22222222----------------|
A|--------2--------22222-421111111-|
E|-4444444--------------2----------|
Suggest correction
comments
print report bad tab
3 comments total.
0 reply
cdrBass 10 Aug 23, 2009 04:23 AM

thius is a really good tab .. nice one mayteee :)

+3 reply
ivesz1 51 Nov 01, 2009 02:44 AM

Easier verse:
G|--------------------------------|
D|-6-6-------------6-6-2--4-4-----|
A|---------6-6----------2---------|
E|-----4-4-----4-4------------2-2-|

0 reply
p town massive 20 Aug 17, 2010 10:09 AM

im definately with ivesz1! 5* though!

guest
You may want to rate the tab now too:
select rating
Wanna post a correction for this tab? Suggest correction