Oops, an error
Loading. Please wait.

Poker Face Bass Tab

version 1
version 1

Whole song

75,975 views 36 this week
3 commentsread comments
1 2 3 4 5
x 13
add to favorites
launch autoscroll
font size
0
reset
guitar tuner
Autoscroll
slow
fast
+/-
esc
set tempo
stop
Help us to improve Ultimate-Guitar.com Take our survey!
×
Author
Difficulty
intermediate
INTRO/VERSE(WHEN DRUM COMES IN)
G|--------------------------------|
D|-6-6-------------6-6------------|
A|---------6-6---------7--9-9-----|
E|-----4-4-----4-4------7-----2-2-|

(ON LAST TIME BEFORE CHORUS, PLAY THIS)
G|---------------------|
D|-6-6-------------6-6-|
A|---------6-6---------|
E|-----4-4-----4-4-----|

CHORUS
G|---------------------------------|
D|---------22222222----------------|
A|--------2--------22222-421111111-|
E|-4444444--------------2----------|

INTRO/VERSE X10
CHORUS X2
INTRO/VERSE X10
CHORUS X2
INTRO/VERSE X8
CHORUS (UNTIL END)
Suggest correction
comments
print report bad tab
3 comments total.
0 reply
cdrBass 10 Aug 23, 2009 08:23 AM

thius is a really good tab .. nice one mayteee :)

+3 reply
ivesz1 51 Nov 01, 2009 07:44 AM

Easier verse:
G|--------------------------------|
D|-6-6-------------6-6-2--4-4-----|
A|---------6-6----------2---------|
E|-----4-4-----4-4------------2-2-|

0 reply
p town massive 20 Aug 17, 2010 02:09 PM

im definately with ivesz1! 5* though!

guest
You may want to rate the tab now too:
select rating
Wanna post a correction for this tab? Suggest correction