Oops, an error
Loading. Please wait.

Sinners Prayer Chords

9,151 views 726 this week
2 commentsread comments
1 2 3 4 5
x 16
add to favorites
launch autoscroll
font size
0
reset
transpose
0
reset
display chords
guitar tuner
Autoscroll
slow
fast
+/-
esc
set tempo
stop
Help us to improve Ultimate-Guitar.com Take our survey!
×
Author
Tuning
E A D G B E
NO CAPO

Play every chord one time in the first Verse and Chorus.

[Verse 1] 
Em
    I came down the mountain
D
 Drunken on a love affair
A
 Got on a pretty little number
N.C
I am wearing steel
Em                       D
It was a hell of a scene at daddy's feast
A
Nobody saw it coming, but the little red devil in me
Em                 D
He has a funny way saying forever too fast
A          A                   A
 Don't get mad, can't blame a tramp
N.C
For something he don't have
N.C
I get on my knees and beg you


[Chorus]
G
 Hear my sinner's prayer
Dm
  I am what I am
C                                         F
 And I don't wanna break the heart of any other man
D
But you, but you
G
 Hear my sinner's prayer
Dm
  It's the only one I know
C
 It sure as hell don't rhyme
 F                            D
But it's as good as, good as, good as, good as gold


e|---------------------------------------------------------------------------|
B|---------------------------------------------------------------------------|
G|---------------------------------------------------------------------------|
D|-----------------------------4-2-4-2-0-------------------------------------|X2
A|---------2---------2-------------------------------------------------------|
E|-0---2-3---0---2-3---0---2-3-----------------------------------------------|

[Verse 2]
Em                      D
 I've got a baby sister who looks just like me
A 
 She wants nothing more than a man to please
Em
  Maybe she's in too deep
D
 Her love for him ain't cheap
A
 But it breaks just like a knockoff piece From Fulton Street
Em                    D
  The man's got a gift for getting what he wants
A
He's thirsty when he drinks, Gets on a brink, and throws her off


e|---------------------------------------------------------------------------|
B|---------------------------------------------------------------------------|
G|---------------------------------------------------------------------------|
D|---------------------------------------------------------------------------|
A|3-2---0--------------------------------------------------------------------|
E|---------3--2-----0---2---3------------------------------------------------|
  I get on my knees and beg you

[Chorus]
G
 Hear my sinner's prayer
Dm
  I am what I am
C                                         F
 And I don't wanna break the heart of any other man
D
But you, but you
G
 Hear my sinner's prayer
Dm
  It's the only one I know
C
 It sure as hell don't rhyme
 F                            D
But it's as good as, good as, good as, good as gold

If you find something wrong or not the most accurate please let me know :)
Suggest correction
comments
print report bad tab
2 comments total.
0 reply
leadrock 10 Nov 10, 2016 06:38 AM

hey I really enjoyed this tab. But, I think the riff sounds better on the low E string rather than move it to the A string
It would go like
8--7--5--3--2------0-2-3
I get on my knees and pray

Also I don't know what the first chord is but the bass line at the beginning goes
---------------------------
----------------------
---------------
---------
------------------------------9-7-9-7
0--2-3-7---0--2-3-7--0--2-3-7----------10

+1 reply
jimtherocket 20 Nov 20, 2016 04:01 PM

Nice!!!
I think the chords at bridge are something like:

C D
I can carry you but not your ghosths

C D
Wish I had the faith but I dont know

Ohhh

guest
You may want to rate the tab now too:
select rating
Wanna post a correction for this tab? Suggest correction