Oops, an error
Loading. Please wait.

Telephone bass

version 1
version 1

Whole song

Interactive

88 views 1 this week
no commentswrite comment
1 2 3 4 5
3 more votes to show rating
add to favorites
×
Save as Personal and add changes to this tab that will be seen only by you. Learn more ›
×
You can save this tab as Personal to edit and correct it or add notes. All changes will be seen only by you. Learn more »
launch autoscroll
font size
0
reset
guitar tuner
edit
Autoscroll
slow
fast
+/-
esc
set tempo
stop
[Intro]
G|--------------------------------|
D|--------------------------------|
A|--------------------------------|X13
E|--------------------------------|

                                                                   
G|----10------10------10------10--|--------------------------------|
D|--------------------------------|----6-------6-------6-------6---|
A|8-------8-------8-------8-------|--------------------------------|
E|--------------------------------|4-------4-------4-------4-------|
 
                                                                    
G|----3-------3-------3-------3---|----10------10------10------10--|
D|--------------------------------|--------------------------------|
A|1-------1-------1-------1-------|8-------8-------8-------8-------|
E|--------------------------------|--------------------------------|
 
[Verse]                                                                   
G|--------------------------------|--------------------------------|
D|--------------------------------|--------------------------------|
A|--------------------------------|--------------------------------|
E|1---------------------------1---|4-------------------------------|
 
                                                                    
G|--------------------------------|--------------------------------|
D|--------------------------------|--------------------------------|
A|1-------------------------------|--------------------------------|
E|--------------------------------|1-------------------------------|
 
                                                                    
G|--------------------------------|--------------------------------|
D|--------------------------------|--------------------------------|
A|--------------------------------|--------------------------------|
E|1---------------------------1---|4-------------------------------|
 
                                                                    
G|--------------------------------|--------------------------------|
D|--------------------------------|--------------------------------|
A|1-------------------------------|--------------------------------|
E|--------------------------------|1-------------------------------|
 
 [Chorus]                                                                   
G|--------------------------------|--------------------------------|
D|----3-------3-------3-------3---|----6-------6-------6-------6---|
A|--------------------------------|--------------------------------|
E|1-------1-------1-------1-------|4-------4-------4-------4-------|
 
                                                                    
G|----3-------3-------3-------3---|--------------------------------|
D|--------------------------------|----3-------3-------3-------3---|
A|1-------1-------1-------1-------|--------------------------------|
E|--------------------------------|1-------1-------1-------1-------|
 
                                                                    
G|--------------------------------|--------------------------------|
D|----3-------3-------3-------3---|----6-------6-------6-------6---|
A|--------------------------------|--------------------------------|
E|1-------1-------1-------1-------|4-------4-------4-------4-------|
 
                                                                    
G|----3-------3-------3-------3---|--------------------------------|
D|--------------------------------|----3-------3-------3-------3---|
A|1-------1-------1-------1-------|--------------------------------|
E|--------------------------------|1-------1-------1-------1-------|
 
                                                                    
G|--------------------------------|--------------------------------|
D|----3-------3-------3-------3---|----6-------6-------6-------6---|
A|--------------------------------|--------------------------------|
E|1-------1-------1-------1-------|4-------4-------4-------4-------|
 
                                                                    
G|----3-------3-------3-------3---|--------------------------------|
D|--------------------------------|----3-------3-------3-------3---|
A|1-------1-------1-------1-------|--------------------------------|
E|--------------------------------|1-------1-------1-------1-------|
 
                                                                    
G|--------------------------------|--------------------------------|
D|----3-------3-------3-------3---|----6-------6-------6-------6---|
A|--------------------------------|--------------------------------|
E|1-------1-------1-------1-------|4-------4-------4-------4-------|
 
                                                                    
G|----3-------3-------3-------3---|--------------------------------|
D|--------------------------------|----3-------3-------3-------3---|
A|1-------1-------1-------1-------|--------------------------------|
E|--------------------------------|1-------1-------1-------1-------|
 
 
G|--------------------------------|
D|--------------------------------|
A|--------------------------------|X8
E|--------------------------------|     

[verse]                               
G|--------------------------------|--------------------------------|
D|3-------3-------3-------3-------|--------------------------------|
A|--------------------------------|--------------------------------|
E|--------------------------------|4-------4-------4-------4-------|
 
                                                                    
G|--------------------------------|--------------------------------|
D|--------------------------------|3-------3-------3-------3-------|
A|1-------1-------1-------1-------|--------------------------------|
E|--------------------------------|--------------------------------|
 
                                                                    
G|--------------------------------|--------------------------------|
D|3-------3-------3-------3-------|3-------3-----------------------|
A|--------------------------------|--------------------------------|
E|--------------------------------|--------------------------------|
 
                                                                    
G|--------------------------------|--------------------------------|
D|--------------------------------|3-------3-------3-------3-------|
A|1-------1-------1-------1-------|--------------------------------|
E|--------------------------------|--------------------------------|
 
          
G|--------------------------------|
D|--------------------------------|
A|--------------------------------|X12
E|--------------------------------|

 [Chorus]                                                         
G|--------------------------------|--------------------------------|
D|----3-------3-------3-------3---|----6-------6-------6-------6---|
A|--------------------------------|--------------------------------|
E|1-------1-------1-------1-------|4-------4-------4-------4-------|
 
                                                                    
G|----3-------3-------3-------3---|--------------------------------|
D|--------------------------------|----3-------3-------3-------3---|
A|1-------1-------1-------1-------|--------------------------------|
E|--------------------------------|1-------1-------1-------1-------|
 
                                                                    
G|--------------------------------|--------------------------------|
D|----3-------3-------3-------3---|----6-------6-------6-------6---|
A|--------------------------------|--------------------------------|
E|1-------1-------1-------1-------|4-------4-------4-------4-------|
 
                                                                    
G|----3-------3-------3-------3---|--------------------------------|
D|--------------------------------|----3-------3-------3-------3---|
A|1-------1-------1-------1-------|--------------------------------|
E|--------------------------------|1-------1-------1-------1-------|
 
                                                                    
G|--------------------------------|--------------------------------|
D|----3-------3-------3-------3---|----6-------6-------6-------6---|
A|--------------------------------|--------------------------------|
E|1-------1-------1-------1-------|4-------4-------4-------4-------|
 
                                                                    
G|----3-------3-------3-------3---|--------------------------------|
D|--------------------------------|----3-------3-------3-------3---|
A|1-------1-------1-------1-------|--------------------------------|
E|--------------------------------|1-------1-------1-------1-------|
 
                                                                    
G|--------------------------------|--------------------------------|
D|----3-------3-------3-------3---|----6-------6-------6-------6---|
A|--------------------------------|--------------------------------|
E|1-------1-------1-------1-------|4-------4-------4-------4-------|
 
                                                                    
G|----3-------3-------3-------3---|--------------------------------|
D|--------------------------------|----3-------3-------3-------3---|
A|1-------1-------1-------1-------|--------------------------------|
E|--------------------------------|1-------1-------1-------1-------|
 
                                                                    
G|--------------------------------|--------------------------------|
D|----3-------3-------3-------3---|----6-------6-------6-------6---|
A|--------------------------------|--------------------------------|
E|1-------1-------1-------1-------|4-------4-------4-------4-------|
 
                                                                    
G|----3-------3-------3-------3---|--------------------------------|
D|6-------------------------------|----3-------3-------3-------3---|
A|--------1-------1-------1-------|--------------------------------|
E|--------------------------------|1-------1-------1-------1-------|
 
                                                                    
G|--------------------------------|--------------------------------|
D|----3-------3-------3-------3---|----6-------6-------6-------6---|
A|--------------------------------|--------------------------------|
E|1-------1-------1-------1-------|4-------4-------4-------4-------|
 
                                                                    
G|----3-------3-------3-------3---|--------------------------------|
D|--------------------------------|----3-------3-------3-------3---|
A|1-------1-------1-------1-------|--------------------------------|
E|--------------------------------|1-------1-------1-------1-------|
 



            
            
Suggest correction
Creating personal tab
Creating personal tab
You can edit any tab online and save it as your Personal.

You can edit, replace or remove any tab part or add personal notes – all changes will be seen only by you.

Personal tabs can be accessed anytime from any device, even offline.
Learn more »
Give kudos to tab author, rate the tab!
1 2 3 4 5
comments
print report bad tab
guest
You may want to rate the tab now too:
select rating
Wanna post a correction for this tab? Suggest correction