Oops, an error
Loading. Please wait.

You And I Tab

4,727 views 1 this week
no commentswrite comment
1 2 3 4 5
x 5
add to favorites
launch autoscroll
font size
0
reset
how to read this tab
guitar tuner
×
Best way to learn
"You And I"
Autoscroll
slow
fast
+/-
esc
set tempo
stop
e|-15-----------------------------------|
b|----17-17br--17b-17--17b-17--20b-20b~-|
g|--------------------------------------|
d|--------------------------------------|
a|--------------------------------------|
e|--------------------------------------|

|------------------------------------------------------|
|-20brp17-20p17-----17-17-----17------------17---------|
|---------------19b-------19b----19brp17-19----17b-----|
|--------------------------------------------------19~-|
|------------------------------------------------------|
|------------------------------------------------------|

|-----------------------------------------------------|
|------------------------17b-17-16-15--14h15p14-15p14-|
|----14-16-16brp14----14---------------14-------14----|
|-16---------------16------------------14h16p14-16p14-|
|-----------------------------------------------------|
|-----------------------------------------------------|

b = bend
r = release
p = pull off
h = hammer on
~ = vibrato
Suggest correction
comments
print report bad tab
guest
You may want to rate the tab now too:
select rating
Wanna post a correction for this tab? Suggest correction