Oops, an error
Loading. Please wait.

Regarding Ascending The Stairs tab

481 views 9 this week
no commentswrite comment
1 2 3 4 5
3 more votes to show rating
add to favorites
×
Save as Personal and add changes to this tab that will be seen only by you. Learn more ›
×
You can save this tab as Personal to edit and correct it or add notes. All changes will be seen only by you. Learn more »
launch autoscroll
font size
0
reset
how to read this tab
guitar tuner
edit
Autoscroll
slow
fast
+/-
esc
set tempo
stop
Author
Difficulty
About this tab version
Added the 5 string banjo version since I've been getting messages and emails about it. UG, if y'all would adopt banjo tabs it would be appreciated greatly. Was this info helpful? Yes No
-----------------------------------------------------------------------------------
                     Regarding Ascending the Stairs - Lady Lamb
-----------------------------------------------------------------------------------
Tabbed by: NicholasFrey-
E-mail: nickfrey95@gmail.com

Tuning: EADGBe

I learned this on banjo first so if it doesn't sound quite right please leave a
comment or correction. I use my thumb to play the hammer-on's and my index finger
for the strumming.

Part I
e|----00-----00-----00-3-33-----00-----00-----00-3-33-3-0000-3-0000-3-0000-3-0000-||
B|----11-----11-0h1-11---11-----11-----11-0h1-11---11---1111---1111---1111---1111-||
G|--- 22-0h2-22-----22---22-----22-0h2-22-----22---22---0000---0000---0000---0000-||o
D|0h3-33-----33-----33---33-0h3-33-----33-----33---33---2222---2222---2222---2222-||o
A|----xx-----xx-----xx---xx-----xx-----xx-----xx---xx---3333---3333---3333---3333-||
E|----xx-----xx-----xx---xx-----xx-----xx-----xx---xx---xxxx---xxxx---xxxx---xxxx-||

Part II: Transition into G
e|----00-----00-----00-3-33-----00-----00-----00-3-33-3-0000-3-0000-3-0000-3-00-3-00-3-|
B|----11-----11-0h1-11---11-----11-----11-0h1-11---11---1111---1111---1111---11---11---|
G|--- 22-0h2-22-----22---22-----22-0h2-22-----22---22---0000---0000---0000---00---00---|
D|0h3-33-----33-----33---33-0h3-33-----33-----33---33---2222---2222---2222---22---22---|
A|----xx-----xx-----xx---xx-----xx-----xx-----xx---xx---3333---3333---3333---33---33---|
E|----xx-----xx-----xx---xx-----xx-----xx-----xx---xx---xxxx---xxxx---xxxx---xx---xx---|

e|3333-3333-3333-3333-----0000-----0000-----0000-----00-----00-3-0000-3-0000-3-0000-3-0000-|
B|3333-3333-3333-3333-----1111-----1111-0h1-1111-0h1-11-0h1-11---1111---1111---1111---1111-|
G|0000-0000-0000-0000-----2222-0h2-2222-----2222-----22-----22---0000---0000---0000---0000-|
D|0000-0000-0000-0000-0h3-3333-----3333-----3333-----33-----33---2222---2222---2222---2222-|
A|2222-2222-2222-2222-----xxxx-----xxxx-----xxxx-----xx-----xx---3333---3333---3333---3333-|
E|3333-3333-3333-3333-----xxxx-----xxxx-----xxxx-----xx-----xx---xxxx---xxxx---xxxx---xxxx-|

Then right back into Part I.

She puts some spins on the song depending on what version you listen to. This is, for the
most part, the studio version. I hope I have been helpful.

**************************************************************************************************************

Banjo version, I'm assuming you have a five string banjo.

This is the first grouping of the song. Pretty much if you know how to play this than you can 
play the whole song. This isn't a song that requires finger picks and is probbaly more difficult to play 
that way. Personally, I just pick and strum with my thumb and index finger. A normal guitar pick will work
as well.

[Verse]
D|----00-----00-----00---00-|
B|----11-----11-0h1-11---11-|
G|----22-0h2-22-----22---22-|
D|0h3-33-----33-----33---33-|
G|----xx-----xx-----xx-0-xx-|
X|--------------------------|

[Chorus]
D|--2222---2222---2222---2222-|
B|--1111---1111---1111---1111-|
G|--0000---0000---0000---0000-|
D|--2222---2222---2222---2222-|
G|0-xxxx-0-xxxx-0-xxxx-0-xxxx-|
X|----------------------------|

Then she plays chords during the break down and pre-chorus. Which are:

  C     G(open) F
D|2     0       0
B|1     0       1
G|0     0       2
D|2     0       3
G|x     x       x

Sometime during the G chord she will play open G like this:

  G
D|3
B|0
G|0
D|0
G|x

************************************

| /   slide up
| \   slide down
| h   hammer-on
| p   pull-off
| ~   vibrato
| +   harmonic
| x   Mute note
| b   Bend
| pb  Pre-bend
| br  Bend release
| pbr Pre-bend release
| brb Bend release bend

************************************
Suggest correction
Creating personal tab
Creating personal tab
You can edit any tab online and save it as your Personal.

You can edit, replace or remove any tab part or add personal notes – all changes will be seen only by you.

Personal tabs can be accessed anytime from any device, even offline.
Learn more »
Give kudos to tab author, rate the tab!
1 2 3 4 5
comments
print report bad tab
guest
You may want to rate the tab now too:
select rating
Wanna post a correction for this tab? Suggest correction