Oops, an error
Loading. Please wait.

Daisy Chain tab

version 2
version 2

Whole song

2,682 views 1 this week
2 commentsread comments
1 2 3 4 5
1 last vote to show rating
add to favorites
×
Save as Personal and add changes to this tab that will be seen only by you. Learn more ›
×
You can save this tab as Personal to edit and correct it or add notes. All changes will be seen only by you. Learn more »
launch autoscroll
font size
0
reset
how to read this tab
guitar tuner
edit
Autoscroll
slow
fast
+/-
esc
set tempo
stop
Daisychain by Lady Of The Sunshine

This one took a while to get sounding right. i think its getting pretty
damn close.

Tuning - EAC#GBE

Intro
|----------------------------------------------------------|
|----------------------------------------------------------|
|--4-4-4-4-4-4-4-4/9--9--9--9--9--9--9--9------------------|
|--0-0-0-0-0-0-0-0-0--0--0--0--0--0--0--0-Lightly mute-----|
|--4-4-4-4-4-4-4-4-11-11-11-11-11-11-11-11-----------------|
|----------------------------------------------------------|
You play this riff for the intro (4X)
You need to lightly mute the C# string the whole time
Angus also seems to randomly hit the open B string throughout the entire song

Verse 1

Same as above, play it 8X


Chorus
Play the intro riff twice, then play this

|--------------------------------------------------|
|--------------------------------------------------|
|--4-4-4-4-4-4-4-4-4-4-4-4-4-4-4-4-4-4-4-4-4-4-4-4-|
|--x-x-x-x-x-x-x-x-x-x-x-x-x-x-x-x-x-x-x-x-x-x-x-x-|
|--4-4-4-4-4-4-4-4-6-6-6-6-6-6-6-6-7-7-7-7-7-7-7-7-|
|--------------------------------------------------|

|------------------------|
|------------------------|
|-------4-4-4---4-4-4----|
|-----0-7-7-7-0-5-5-5-0--|
|------------------------|
|------------------------|
                                                   *
|----------------------------------------------------|
|----------------------------------------------------|
|--4-4-4-4-4-4-4-4-4-4-4-4-4-4-4-4-4-4-4-4-4-4-4-4-4-|
|--x-x-x-x-x-x-x-x-x-x-x-x-x-x-x-x-x-x-x-x-x-x-x-x-x-|
|--4-4-4-4-4-4-4-4-6-6-6-6-6-6-6-6-7-7-7-7-7-7-7-7-7-|
|----------------------------------------------------|
 *Note the extra one on the end                    *

Verse 2
Strum the intro riff 8X


Chorus 2
play the intro riff 2X then play

|--------------------------------------------------|
|--------------------------------------------------|
|--4-4-4-4-4-4-4-4-4-4-4-4-4-4-4-4-4-4-4-4-4-4-4-4-|
|--x-x-x-x-x-x-x-x-x-x-x-x-x-x-x-x-x-x-x-x-x-x-x-x-|
|--4-4-4-4-4-4-4-4-6-6-6-6-6-6-6-6-7-7-7-7-7-7-7-7-|
|--------------------------------------------------|

|------------------------|
|------------------------|
|-----9--9--9--9-9-9-9-9-|
|-----x--x--x--0-x-x-x-0-|
|---/11-11-11----9-9-9---|
|------------------------|

|--------------------------------------------------|
|--------------------------------------------------|
|--4-4-4-4-4-4-4-4-4-4-4-4-4-4-4-4-4-4-4-4-4-4-4-4-|
|--x-x-x-x-x-x-x-x-x-x-x-x-x-x-x-x-x-x-x-x-x-x-x-x-|
|--4-4-4-4-4-4-4-4-6-6-6-6-6-6-6-6-7-7-7-7-7-7-7-7-|
|--------------------------------------------------|

|------------------------|
|------------------------|
|--9--9--9--9--9----9----|
|--10-10-10-10-12-0----0-|
|--11---------------11---|
|------------------------|

|--------------------------------------------------|
|--------------------------------------------------|
|--4-4-4-4-4-4-4-4-4-4-4-4-4-4-4-4-4-4-4-4-4-4-4-4-|
|--x-x-x-x-x-x-x-x-x-x-x-x-x-x-x-x-x-x-x-x-x-x-x-x-|
|--4-4-4-4-4-4-4-4-6-6-6-6-6-6-6-6-7-7-7-7-7-7-7-7-|
|--------------------------------------------------|

|------------------------|
|------------------------|
|-----9--9--9--9-9-9-9-9-|
|-----x--x--x--0-x-x-x-0-|
|---/11-11-11----9-9-9---|
|------------------------|

|----------------------------------------------------|
|----------------------------------------------------|
|--4-4-4-4-4-4-4-4-4-4-4-4-4-4-4-4-4-4-4-4-4-4-4-4-4-|
|--x-x-x-x-x-x-x-x-x-x-x-x-x-x-x-x-x-x-x-x-x-x-x-x-x-|
|--4-4-4-4-4-4-4-4-6-6-6-6-6-6-6-6-7-7-7-7-7-7-7-7-7-|
|----------------------------------------------------|


Outro
play the intro riff 4x, then play chorus 2 part as above
He also plays this little outro solo over the top

|---------------------------------------------------|
|---------------------------------------------------|
|--8-9-8--11---8-9-8--13-13-13--11-14-11-13-11--8-9-|
|---------------------------------------------------|
|---------------------------------------------------|
|---------------------------------------------------|

|-----------------------|
|-----------------------|
|--11-14-11-13-11--8-13-|
|-----------------------|
|-----------------------|
|-----------------------|

|-----14------12-----12-----12------14------12-11----12-----12-|
|-/12-----/10-----/9-----/9-----/12-----/10-------/9-----/9----|
|--------------------------------------------------------------|
|--------------------------------------------------------------|
|--------------------------------------------------------------|
|--------------------------------------------------------------|

|-----14------12-----12-----12------14------12-11----|
|-/12-----/10-----/9-----/9-----/12-----/10--------9-|
|----------------------------------------------------|
|----------------------------------------------------|
|----------------------------------------------------|
|----------------------------------------------------|

And thats it
I hope this was helpful

Storz

            
            
Suggest correction
Creating personal tab
Creating personal tab
You can edit any tab online and save it as your Personal.

You can edit, replace or remove any tab part or add personal notes – all changes will be seen only by you.

Personal tabs can be accessed anytime from any device, even offline.
Learn more »
Give kudos to tab author, rate the tab!
1 2 3 4 5
comments
print report bad tab
2 comments total.
0 reply
storz 155 Jun 01, 2009 10:19 PM

My bad. i posted this without signing in

0 reply
liiammm 31 Jun 21, 2009 01:41 PM

Great tab!

guest
Wanna post a correction for this tab? Suggest correction