Oops, an error
Loading. Please wait.

Silver Revolver Tab

version 1
version 1

Whole song

Interactive

7,932 views 9 this week
no commentswrite comment
1 2 3 4 5
x 6
add to favorites
launch autoscroll
font size
0
reset
how to read this tab
guitar tuner
Autoscroll
slow
fast
+/-
esc
set tempo
stop
Help us to improve Ultimate-Guitar.com Take our survey!
×
Author
Capo
1st fret
Silver Revolver - Lady Of The Sunshine


Capo on 1st (all notes in relation to Capo)


Tuning - Drop D 


I know this isnt 100% correct. It sounds pretty close though.
I think the best thing to do is use this tab more as a guide
and play it by feel. I apologise for the layout. im kinda new 
to this tabbing stuff. anyway, enjoy



Intro

|---------------------------------
|-------------------------------------------
|---------------------------------          |
|--4-----4---4---4---4---4---4---4          |
|--5-----5---5---5---5---5---5---5          |
|----0-----0---0---0---0---0---0--          |
                                            |
|---------------------------------
|---------------------------------
|---------------------------------
|--------4---4---4---4---4---4---4
|--0-5---5---5---5---5---5---5---5       RIFF
|----5-----5---5---5---5---5---5--         A

|---------------------------------
|---------------------------------
|---------------------------------
|--4-----4---4---4---4---4---4---4
|--5-----5---5---5---5---5---5---5
|----0-----0---0---0---0---0---0--          |
                                            |
|---------------------------------          |
|---------------------------------          |
|---------------------------------          |
|--------4---4---4---4---4---4---4          |
|--0-5---5---5---5---5---5---5---5----------|
|----5-----5---5---5---5---5---5--

|------------------------------------
|-------------------------------------------|
|------------------------------------       |
|--4------4---4---4---4---4---7---5-4       |
|--5------5---5---5---5---5---5---5-5       |
|----0------0---0---0---0---0---0----       |
                                            |
|----------------------------------         |
|----------------------------------         |
|----------------------------------         |
|-------4---4---4---4---4-------4--
|--5----5---5---5---5---5---7-----5
|--5------5---5---5---5---5-5-5----        RIFF
                                            B
|------------------------------------
|------------------------------------
|------------------------------------
|--4------4---4---4---4---4---7---5-4       |
|--5------5---5---5---5---5---5---5-5       |
|----0------0---0---0---0---0---0----       |
                                            |
|----------------------------------         |
|----------------------------------         |
|----------------------------------         |
|-------4---4---4---4---4-------4-----------|
|--5----5---5---5---5---5---7-----5
|--5------5---5---5---5---5-5-5----
-------------------------------------------------


Verse 1


Play Riff A 5 times


----------------------------------------------------


Verse 2 

Play riff B 5 times


----------------------------------------------------


Chorus 1 (Riff C)


|---------------------------------|
|---------------------------------|
|---------------------------------|
|----4---4---4---4---4---4---4---4|
|----5---5---5---5---5---5---5---5|
|--5---5---5---5---7---7---7---7--|

|---------------------------------|
|---------------------------------|
|---------------------------------|
|----4---4---4---4---7---7---5---4|
|----5---5---5---5---9---9---7---5|
|--0---0---0---0---0---0---0---0--|

|---------------------------------|
|---------------------------------|
|---------------------------------|
|----4---4---4---4---4---4---4---4|
|----5---5---5---5---5---5---5---5|
|--5---5---5---5---7---7---7---7--|

|---------------------------------|
|---------------------------------|
|---------------------------------|
|----4---4---4---4---2---2---4---2|
|----5---5---5---5---4---4---5---4|
|--0---0---0---0---0---0---0---0--|

Play this whole riff twice for the chorus
except the second time around the last bar
cuts a little short like this:

|---------------------------------|
|---------------------------------|
|---------------------------------|
|----4---4---4---4---2---2--------|
|----5---5---5---5---4---4--------|
|--0---0---0---0---0---0----------|



------------------------------------------------------


Interlude

Riff A 3 times


------------------------------------------------------


Verse 3/solo

Play Riff B 4 times with this little solo over the top
|---------------------------------------------------|
|--7-8-7----------------------7-8-7-----------------|
|--------7-9-11-7-------------------7-9-11-7--------|
|-------------------9---7----------------------9---7|
|---------------------------------------------------|
|---------------------------------------------------|



-------------------------------------------------------


Chorus 2
Same as chorus 1 (riff c)


-------------------------------------------------------


Interlude

Riff A once


-------------------------------------------------------


Outro

Riff B 4 times

The 4th time skips a little bit of the last bar as well

|----------------------------------|       
|----------------------------------|         
|----------------------------------|         
|-------4---4---4---4---4----------|
|--5----5---5---5---5---5----------|
|--5------5---5---5---5------------|

And you are done

Hope this was helpfull


Storz
Suggest correction
comments
print report bad tab
guest
You may want to rate the tab now too:
select rating
Wanna post a correction for this tab? Suggest correction