Oops, an error
Loading. Please wait.

Mala Wojna Tab

version 1
version 1

Whole song

Interactive

13,530 views 6 this week
no commentswrite comment
1 2 3 4 5
please rate
add to favorites
launch autoscroll
font size
0
reset
how to read this tab
guitar tuner
Autoscroll
slow
fast
+/-
esc
set tempo
stop
Help us to improve Ultimate-Guitar.com Take our survey!
×
Author
Wstęp
--------------------------------------------------------------------------|
-----4----------------------2-----4---5---4--------4------------2-----2---|
--1------3------4---3---4-----------------------1------3-----4-----4------|
--------------------------------------------------------------------------|
----------------2-----------------2--------------------------2----(2)-----|
--0------2--------------------------------------0------2------------------|


--------------------------------------------------------------------------|
----------2-------4----------------------2-----4---5---4--------4---------|
---4---3-------1------3------4---3---4-----------------------1------3-----|
--------------------------------------------------------------------------|
-------2---------------------2-----------------2--------------------------|
---------------0------2--------------------------------------0------2-----|


zwrotka
  gis       Fis  H           E              cis      H    Fis
--4------2-----------------------0------------------4------------------2--|
--4------2----4-------4----------0------------0-----5-------5---4------2--|
--4------3----4----------4-------1----------1-------6-----6-----4------3--|
--6------4----4-------------4----2--------2---------6---6-------4------4--|
--6------4----2----2-------------2------2-----------4-----------2------4--|
--4------2-----------------------0----0--------------------------------2--|

 gis  FisH                E            cis         H      Fis
-4----2--------------------------0--0-----------------4---4-------------2-|
-4----2--4-----4-7-5-4-----------0----0-----------0---5-----5-----4-----2-|
-4----3--4--\4---------6-4-------1------0-------1-----6-------6---4-----3-|
-6----4--4-----------------6-4---2------------2-------6-----------4-----4-|
-6----4--2-----------------------2--------------------4-----------2-----4-|
-4----2--------------------------0----------0---------------------------2-|


Cala zwrotke powtarzamy 2 razy. Potem gramy solo.

6b8 - podciagniecie struny o 2 progi (jeden ton)
sl  /6 - slide ( zjazd ) z nieokreslonego progu do podanego
       (w tym wypadku jest to prog 6)
sl 4/6 - slide z progu 4 na prog 6
p - pull off
h - hammer on

solo
Gitara 1
---------------------------------------------------------------|
--------------------------------------------------7------------|
-------4--4-----------4--4------6b8--6p4h6-----/8---8p6p4---6--|
----/6-------6-----/6-------6----------------------------------|
---------------------------------------------------------------|
---------------------------------------------------------------|

gitara 2
Fis  gis      Fis   Gis       E     Fis       E     Fis        Fis     gis
-2---4--------2------4--------0-----2---------0-----2----------2-------4-|
-2---4--------2------4--------0-----2---------0-----2----------2-------4-|
-3---4--------3------4--------1-----3---------1-----3----------3-------4-|
-4---6--------4------6--------2-----4---------2-----4----------4-------6-|
-4---6--------4------6--------2-----4---------2-----4----------4-------6-|
-2---4--------2------4--------0-----2---------0-----2----------2-------4-|
i zwrotka...

Po zwrotce bez zadnego przejscia, od razu gramy refren
Refren
 E                 Fis                 gis                  H
-0-----0---0-------2-------2---2-------4-------4---4--------7-------7---7-|
-0-----0---0-------2-------2---2-------4-------4---4--------7-------7---7-|
-1-----1---1-------3-------3---3-------4-------4---4--------8-------8---8-|
-2-----2---2-------4-------4---4-------6-------6---6--------9-------9---9-|
-2-----2---2-------4-------4---4-------6-------6---6--------9-------9---9-|
-0-----0---0-------2-------2---2-------4-------4---4--------7-------7---7-|

Powtarzamy refren 3 razy, a za 4 razem gramy tylko  E  i  Fis.
Potem od razu wchodzimy na zwrotke gis. Gramy zwrotke, potem refren
(w ten sam sposob jak poprzednio), po nich nastepuje coda,
po ktorej znowu gramy refren, solowke (powtarzamy 2 razy,
druga gitara gra te same funkcje co w poprzedniej solowce),
znow refren i koncowke.

Coda (grana na przesterze)
  A                          D            E   powtarzamy 2 razy
--------------------------------------------------------------|
----2-------2-------------2---------------3-----3-----0----0--|
----2-------2---2---2-----2------2---2----2-----2-----1----1--|
----2-------2---2---2-----2------2---2----0-----0-----2----2--|
----0-------0---0---0-----0------0---0----------------2----2--|
------------------------------------------------------0----0--|
  tacy sa, kto zaplaci za twoj bol, za szampana lyk od tej chwili bedziesz

---------2-----2---2-----2-------4------4-----------7------|
---------2-----2---2-----2-------4------4-----------7------|
---------3-----3---3-----3-------4------4-----------8------|
---------4-----4---4-----4-------6------6-----------9------|
---------4-----4---4-----4-------6------6-----------9------|
---------2-----2---2-----2-------4------4-----------7------|
     moj, nie, nie odwracaj sie patrz mi w oczy, patrz       i refren


solo

x - uderzamy struny tlumione  - uderzamy naprzemiennie
  (tyle razy ile jest zapisane, czyli dokładnie tyle ile napisalem wyzej).
Potem od razu wchodzimy na slide do progu 6 na strunie D4 i
gramy dalszy ciag solówki rozpisanej nizej.

-------------------------------------------------------------------------|
-----------------------------------------7-------------x---x---x---x---x-|
----4--4----------4-4-----6b8--6p4h6--/8----8p6p4--6---x---x---x---x---x-|
-/6------6-----/6-----6--------------------------------x---x---x---x---x-|
-------------------------------------------------------x---x---x---x---x-|
-------------------------------------------------------------------------|


---------------------------------------------------------------------|
----------------x------------------------------------7---------------|
------4--4------x-------4--4-------6b8---6p4h6----/8-----8p6p4---6---|
---/6------6----x----/6------6---------------------------------------|
---------------------------------------------------------------------|

---------------------------------------------------------------------

------------------------------|
------------------------------|
---8p6p4-----4---8p6p4---4----|
----------8------------6----6-|
------------------------------|
------------------------------|

Teraz refren i koncowka
Koncowka                                powtorzyc kilka razy
------------------------------------------4----------------------7--------|
-------0--------2--------------------4------4------------7---------7----7-|
----1------1-------3--------3-----4-----------4-------8-----8--------8----|
-2--------------------4--------6--------------------9---------------------|
--------------------------------------------------------------------------|
--------------------------------------------------------------------------|

ze zwolnieniem
----------------------------------------------4--|
---------0--------2--------------------------4---|
-----1-------1--------3-------3-------------4----|
--2-----------------------4----------------6-----|
------------------------------------------6------|
-----------------------------------------4-------|
Suggest correction
Give kudos to tab author, rate the tab!
1 2 3 4 5
comments
print report bad tab
guest
You may want to rate the tab now too:
select rating
Please do not post tabs as comments. Select "correction" instead!