Oops, an error
Loading. Please wait.

Zawsze Tam Gdzie Ty Tab

version 1
version 1

Whole song

Interactive

134,457 views 51 this week
2 commentsread comments
1 2 3 4 5
excellent!
x 6
add to favorites
launch autoscroll
font size
0
reset
how to read this tab
guitar tuner
Autoscroll
slow
fast
+/-
esc
set tempo
stop
Help us to improve Ultimate-Guitar.com Take our survey!
×
Author
Difficulty
intermediate
[intro]

   C                            a
|----------------------------|-----------------------------|
|--1-----1--1--1h3-----1--0--|--1-----3h5--5--0h1--1p0--0--|
|--0-----0--0----------0-----|--2-----0-------0---------0--|
|--2-----2--2----------2-----|--3-----0-------0---------0--|
|--3-----3--3----------3-----|--0--------------------------|
|----------------------------|-----------------------------|

   G7
|-------------------------x--x--8-----8--3----3------------3-----|
|--------3----------3--x--x--x--8h10--8--3h5--3h5p3--------3h5---|
|--0-----0----------0--x-----------------------------5-----------|
|--0-----0----------0--x-----------------------------------------|
|--2-----2----------2--x-----------------------------------------|
|--3-------------------------------------------------------------|

   C                               a
|----------------------------|-----------------------------|
|--1-----1--1--1h3-----1--0--|--1-----3h5--5--0h1--1p0--0--|
|--0-----0--0----------0-----|--2-----0-------0---------0--|
|--2-----2--2----------2-----|--3-----0-------0---------0--|
|--3-----3--3----------3-----|--0--------------------------|
|----------------------------|-----------------------------|

   G
|-----------------------x--x--8-----8--3----3----------------------|
|--------3--------3--x--x--x--8h10--8--3h5--3h5p3------------3\(0)-|
|--0-----0--------0--x---------------------------------5-----------|
|--0-----0--------0--x---------------------------------------------|
|--2-----2--------2--x---------------------------------------------|
|--3---------------------------------------------------------------|

[zwrotka]

|-----------------------|-----------------------|
|--------1------------1-|--------1------------1-|
|-----0------------0----|------0-----------0----|
|-----------------------|-----------------------|
|-3-----------3---------|-0-----------0---------|
|-----------------------|-----------------------|

|-----------------------|-----------------------|
|---------1-----------1-|--------1------------1-|
|------0-----------0----|-----0-----0------0----|
|-----------------------|-------------3---------|
|-----------------------|-3---------------------|
|-3-----------3---------|-----------------------|

Zamienię...
By zabrał...
Poskładam...
Żeby znalazł..

[refren]

  F                   G
   Już teraz...
  C                    a
   By do ciebie...
  F                      G
   Nie znam słów...
  C                   a|
   Jeśli tylko...
        F           G
   Być tam...

|-8-----8--3----3-----|
|-8h10--8--3h5--3h5p3-|
|---------------------|
|---------------------|
|---------------------|
|---------------------|

[zwrotka]

grają 2 gitary, jedna na akordach a druga z tabulatury zwrotki

C                 a           G
Nie pytaj...
Płyniemy...
Poskładam...
By już...

[refren]


powtórzyć intro

[refren]

   Już teraz...
   By do ciebie...
   Nie znam...
   Jeśli...
   Być tam...
   Budzić się...
   Być tam...
   Żegnać się...
   Być tam...
   Budzić się...
   Być tam...

[wstawka] grają 2 gitary, jedna na akordach 2ga z taulatury:

  C              a           F           G
|-0---------3-|-----------|--------3--|----------|
|-1---0--1----|--0--1-----|--0--1-----|--0--1--1-|
|-0-----------|--------2--|-----------|----------|
|-2-----------|-----------|-----------|----------|
|-3-----------|-----------|-----------|----------|
|-------------|-----------|-----------|----------|

   C            a           F           G      C
|--------3--|------------|----------|-------|------|
|--0--1-----|---0--1-----|--0--1----|-------|------|
|-----------|---------2--|--------0-|--(0)--|------|
|-----------|------------|----------|-------|------|
|-----------|------------|----------|-------|------|
|-----------|------------|----------|-------|------|

                              Zawsze tam gdzie TY   Yee
Suggest correction
What's this?
You can suggest a correction to this tab. Community and Mods will review your correction and vote to approve or reject it.
comments
print report bad tab
2 comments total.
0 reply
Matifli 77 wrote on December 21 2010, 03:39 pm

pisze przy drugim barze a a na tabie jest coś innego

 C                            a
|----------------------------|-----------------------------|
|--1-----1--1--1h3-----1--0--|--1-----3h5--5--0h1--1p0--0--|
|--0-----0--0----------0-----|--2-----0-------0---------0--|
|--2-----2--2----------2-----|--2-----0-------0---------0--|
|--3-----3--3----------3-----|--0--------------------------|
|----------------------------|-----------------------------|

0 reply
klaudiasojka 11 wrote on January 26 2015, 10:15 am

n mbmnbmnb

guest
You may want to rate the tab now too:
select rating
Please do not post tabs as comments. Select "correction" instead!