Oops, an error
Loading. Please wait.

Zawsze Tam Gdzie Ty Tab

version 2
version 2

Whole song

Interactive

8,541 views 1 this week
no commentswrite comment
1 2 3 4 5
please rate
add to favorites
launch autoscroll
font size
0
reset
how to read this tab
guitar tuner
Autoscroll
slow
fast
+/-
esc
set tempo
stop
Help us to improve Ultimate-Guitar.com Take our survey!
×
Author
Difficulty
intermediate
	Intro
	
	|---------------------------------3----3---3-----------|
	|--1-----1--1--1h3--1--0----1-----3h5--5---3h5p3-------|
	|--0-----0--0--0----0--0----2-----0----0---0-------5-4-|
	|--2-----2--2--2----2--2----2--------------------------|
	|--3-----3--3-------3--3----0--------------------------|
	|------------------------------------------------------|


	|--3-----3-----3--3-----8-----8------------------------|
	|--3-----3-----3--3-----8h10--8--8----8----------------|
	|--4-----4-----4--4--------------7h9--7h9p7----7h9 ----|
	|--5-----5-----5--5-------------------------10---------|
	|--5--x--5--x--5--5------------------------------------|
	|--3--x--3--x--3--3------------------------------------|   x2
		
	verse 1

	|---------------------|---------------------|
	|-------1-----------1-|--------1----------1-|
	|----0-----------0----|-----0----------0----|
	|---------------------|---------------------|
	|-3----------3--------|-0----------0--------|
	|---------------------|---------------------|
	
	|---------------------|---------------------|
	|-------1-----------1-|--------1----------1-|
	|----0-----------0----|-----0-----0---0-----|
	|---------------------|-------------3-------|
	|---------------------|---------------------|
	|-3----------3--------|-3-------------------|
	
	Chorus
		
	|--1-----1---1---1--|--3-----3---3---3--|
	|--1-----1---1---1--|--3-----3---3---3--|
	|--2-----2---2---2--|--0-----0---0---0--|
	|--3-----3---3---3--|--0-----0---0---0--|
	|--3-----3---3---3--|--2-----2---2---3--|
	|--1-----1---1---1--|--3-----3---3---3--|
	
	|------------0--0-0-|--0-----0--0--0--0-|
	|------------1--1-1-|--1-----1--3--1--0-|
	|----------0----0-0-|--2-----2--2--2--2-|
	|--------2------2-2-|--2-----2--2--2--2-|
	|-0-2-3---------3-3-|--0-----0--0--0--0-|
	|---------------3-3-|-------------------|
	
	|--1-----1---1---1--|--3-----3---3---3--|
	|--1-----1---1---1--|--3-----3---3---3--|
	|--2-----2---2---2--|--0-----0---0---0--|
	|--3-----3---3---3--|--0-----0---0---0--|
	|--3-----3---3---3--|--2-----2---2---3--|
	|--1-----1---1---1--|--3-----3---3---3--|

	|------------0--0-0-|--0------------------1-|
	|------------1--1-1-|--1--1h3-3-1h3p1-1-0-1-|
	|----------0----0-0-|--2------------------2-|
	|--------2------2-2-|--2------------------3-|
	|-0-2-3---------3-3-|--0------------------3-|
	|---------------3-3-|---------------------1-|
	
	|--1-----1---1---1--|--3-----3---3---3-x-|--8-----8-------------|
	|--1-----1---1---1--|--3-----3---3---3-x-|--8h10--8--8----8-----|
	|--2-----2---2---2--|--0-----0---0---0-x-|-----------7h9--7h9p7-|
	|--3-----3---3---3--|--0-----0---0---0-x-|----------------------|
	|--3-----3---3---3--|--2-----2---2---3-x-|----------------------|
	|--1-----1---1---1--|--3-----3---3---3-x-|----------------------|
	
	
	verse 2
	
	|---------------------|---------------------|
	|-------1-----------1-|--------1----------1-|
	|----0-----------0----|-----0----------0----|
	|---------------------|---------------------|
	|-3----------3--------|-0----------0--------|
	|---------------------|---------------------|
	
	|---------------------|---------------------|
	|-------1-----------1-|--------1---------1--|
	|----0-----------0----|-----0---------0-----|
	|---------------------|------------3--------|
	|---------------------|---------------------|
	|-3----------3--------|-3-------------------|
	
	
	Outro
	
	  C              a           F           G
	|------------|-----------|-----------|-----------|
	|---------8~-|-----------|--------8~-|-----------|
	|------------|-----------|-----------|-----------|
	|---9-10-----|---9-10--7~|---9-10----|--9-10--10~|
	|------------|-----------|-----------|-----------|
	|------------|-----------|-----------|-----------|
	
	   C            a           F           G
	|-----------|------------|----------|--------|
	|--------8~-|------------|----------|--------|
	|-----------|------------|----------|--------|
	|---9-10----|---9-10--7~-|--9-10----|---10~--|
	|-----------|------------|-------10~|--------|
	|-----------|------------|----------|--------|	
	
In the outro second guitar playing chords wrote above.

hope it's clear.
Suggest correction
What's this?
You can suggest a correction to this tab. Community and Mods will review your correction and vote to approve or reject it.
comments
We did not receive enough feedback on this tab! Please rate:
print report bad tab
1 2 3 4 5
guest
You may want to rate the tab now too:
select rating
Please do not post tabs as comments. Select "correction" instead!