Oops, an error
Loading. Please wait.

Black White Blue bass

139 views 1 this week
1 commentread comment
1 2 3 4 5
3 more votes to show rating
add to favorites
×
Save as Personal and add changes to this tab that will be seen only by you. Learn more ›
×
You can save this tab as Personal to edit and correct it or add notes. All changes will be seen only by you. Learn more »
launch autoscroll
font size
0
reset
guitar tuner
edit
Autoscroll
slow
fast
+/-
esc
set tempo
stop
Author
Difficulty
-------------------------------------------------------------------------------
                   BLACK WHITE AND BLUE - Ladyhawke
-------------------------------------------------------------------------------
Tabbed by: Creedence18 

Tuning:
  Verse 8x
G|-------------------------------------------------------------------|
D|-------------------------------------------------------------------|
A|-------------------3-3-1-3--3-1-3-------------------3-3-1-3--3-1-3-|
E|3-1-3-3---3-1-3-------------------3-3-1-3--3-1-3-------------------|

  Pre-Chorus ('cause this is real life)
G|----------------------------------|
D|----------------------------------|
A|1-1-1-1-1-1-1-1-/-5-5-5-5-5-5-5-5-|
E|----------------------------------|

G|----------------------------------|
D|----------------------------------|
A|-------------------3-3-1-3--3-1-3-|
E|3-1-3-3---3-1-3-------------------|

G|----------------------------------|
D|----------------------------------|
A|1-1-1-1-1-1-1-1-/-5-5-5-5-5-5-5-5-|
E|----------------------------------|

 Chorus 8x
G|-------------------------------4-4-5-7-7-|
D|---------------3-3-5-5-7-7---------------|
A|3-3-5-5-7-7------------------------------|
E|-----------------------------------------|
*acending C major scale*
 2 bar rest (1 chorus)
 
 Verse 2x
G|-------------------------------------------------------------------|
D|-------------------------------------------------------------------|
A|-------------------3-3-1-3--3-1-3-------------------3-3-1-3--3-1-3-|
E|3-1-3-3---3-1-3-------------------3-3-1-3--3-1-3-------------------|

 Pre-Chorus ('cause this is real life)
G|----------------------------------|
D|----------------------------------|
A|1-1-1-1-1-1-1-1-/-5-5-5-5-5-5-5-5-|
E|----------------------------------|

G|----------------------------------|
D|----------------------------------|
A|-------------------3-3-1-3--3-1-3-|
E|3-1-3-3---3-1-3-------------------|

G|----------------------------------|
D|----------------------------------|
A|1-1-1-1-1-1-1-1-/-5-5-5-5-5-5-5-5-|
E|----------------------------------|

 Chorus 8x
G|-------------------------------4-4-5-7-|
D|---------------3-3-5-5-7-7-------------|
A|3-3-5-5-7-7----------------------------|
E|---------------------------------------|
4 bar rest

Bridge
G|--------------------------------------------------|
D|5-5----------------------5-5----------------------|
A|-----5----5-3-3--------------5----5-3-3-----------|
E|------------------3----3-------------------3----5-|

Pre-Chorus ('cause this is real life)
G|----------------------------------|
D|----------------------------------|
A|1-1-1-1-1-1-1-1-/-5-5-5-5-5-5-5-5-|
E|----------------------------------|

G|----------------------------------|
D|----------------------------------|
A|-------------------3-3-1-3--3-1-3-|
E|3-1-3-3---3-1-3-------------------|

G|----------------------------------|
D|----------------------------------|
A|1-1-1-1-1-1-1-1-/-5-5-5-5-5-5-5-5-|
E|----------------------------------|

Chorus 8x
G|-------------------------------4-4-5-7-|
D|---------------3-3-5-5-7-7-------------|
A|3-3-5-5-7-7----------------------------|
E|---------------------------------------|

End

| /  slide up
| \  slide down
| h  hammer-on
| p  pull-off
| ~  vibrato
| +  harmonic
| x  Mute note
===============================================================================

            
            
Suggest correction
Creating personal tab
Creating personal tab
You can edit any tab online and save it as your Personal.

You can edit, replace or remove any tab part or add personal notes – all changes will be seen only by you.

Personal tabs can be accessed anytime from any device, even offline.
Learn more »
Give kudos to tab author, rate the tab!
1 2 3 4 5
comments
print report bad tab
1 comment total.
0 reply
creedence18 31 Oct 12, 2013 10:37 PM

 E standard tuning

guest
You may want to rate the tab now too:
select rating
Wanna post a correction for this tab? Suggest correction