Oops, an error
Loading. Please wait.

After You My Friend Tab

version 1
version 1

Whole song

Interactive

2,161 views 1 this week
no commentswrite comment
1 2 3 4 5
please rate
add to favorites
launch autoscroll
font size
0
reset
how to read this tab
guitar tuner
Tab Pro tools
  • play this tab
  • loop segment
  • change instrument
  • show fretboard
  • metronome
×
Best way to learn
"After You My Friend"
Autoscroll
slow
fast
+/-
esc
set tempo
stop
                       AFTER YOU MY FRIEND - Lagwagon


Tabbed by: Jay Leggate :)
www.uglymanpunkrock.4t.com

Chords to clarify:
   C#m7   F#7  Bmaj7  Cdim   E5*  Eb5*  G#5*  C#5*  Adim5  Bbaug5
E---4------2-----2-----2-----X-----X-----X-----X-----X-------X
B---5------2-----4-----4-----X-----X-----X-----X-----X-------X
G---4------3-----3-----2-----4-----X-----8-----X-----X-------X
D---6------2-----4-----4-----2-----8-----6-----6-----X-------4
A---4------4-----2-----3-----2-----6-----6-----4-----6-------1
E---X------2-----X-----X-----X-----6-----X-----4-----5-------X

All Chords are 5ths unless otherwise stated (power chords)
You can figure out where the palm muting is and the distortion and clean
are... 'cause i can't.  

Intro:
B...(Eb octave)
B F# G# E B C# F#

Verse:
B Bbaug5 G# F# E B C# F#
B Bbaug5 G# F# Eii B C# F#
E F# G# A B F# G# A Eb5*
Eii Ebii Emaj(hit higher strings on upstroke) Eb5* A
B F#

Repeat 1st two lines of verse then:
  C#m7       F#7         Bmaj   Cdim
E-------------------------------------------   
B--5---7-5-4-------4-5---4-5-4-----------4--   
G------------6-6-6-------------6-5-5-5-6----X2 
D-------------------------------------------   
A-------------------------------------------   
E------------------------------------------- 

  C#m7       F#7         Bmaj   Cdim         C#m7     F#7
E--4-----4-2-------2-4---2-4-2----------------4-2------------------   
B--5---7-5-4-5-5-5-4-5---4-5-4-5-4-4-4/5/7----5-4-5-4--------------
G------------6-6-6-------------6-5-5-5/6/8--------6-4-3-----3h4h6--
D----------------------------------------------------4---4---------
A------------------------------------------------------------------
E------------------------------------------------------------------
then..

Intro but with timing change
Verse is same until...

"well aware" which is on A
"of his pride..."
         E5* C A Adim5 C#* G#* E Eii (x4 but last two chords are F# and Emaj)
i actually ripped this off some guy but im sure he doesn't give a fuck if i 
get all the credit. he he he
comments
We did not receive enough feedback on this tab! Please rate:
print report bad tab
1 2 3 4 5
I want to post or [tab]
guest
You may want to rate the tab now too:
select rating
Please do not post tabs as comments. Select "correction" instead!