Oops, an error
Loading. Please wait.

Island Of Shame bass

version 2
version 2

Whole song

Interactive

1,119 views 3 this week
no commentswrite comment
1 2 3 4 5
x 4
add to favorites
×
Save as Personal and add changes to this tab that will be seen only by you. Learn more ›
×
You can save this tab as Personal to edit and correct it or add notes. All changes will be seen only by you. Learn more »
launch autoscroll
font size
0
reset
guitar tuner
edit
Autoscroll
slow
fast
+/-
esc
set tempo
stop
ISLAND OF SHAME by Lagwagon. Album : Trashed (1994)                      
This song hits you with rapidly changing rhythm and wonderful bass lines.
Great song to start tabbing Lagwagon!
!FOR MORE ACCURATE LAGWAGON BASS TABS, VISIT www.jiihootabs.cjb.net!
# intro #                                                           >
G------------------------------------------------------------------->
D--------------------------------------------------10--1214--1210--->
A------------------------------------------------------------------->
E---5---------------3---------------1------------------------------->
>intro
>-------------------------------------------------------------------|
>--------------------------------------------------10/121212/1414---|
>-------------------------------------------------------------------|
>---5---------------3---------------1-------------------------------|
:
# intro2 #   *=play 7X                                              >
G--------------------*---------------*------------------------------>
D----*-------------12--------------10--------------10--1214--1210--->
A--12--------------------------------------------------------------->
E------------------------------------------------------------------->
>intro2
>--------------------*---------------*------------------------------|
>----*-------------12--------------10--------------10/121212/1414---|
>--12---------------------------------------------------------------|
>-------------------------------------------------------------------|
:
# into-verse # !play all notes 3-4X!
G-------------------------------------------|
D-------------------------------------------|
A---8---5---7---8---5---0---8---5---7---7---|
E-------------------------------------------|
:
# verse #   %=pause                                                  >
G---------------------------------------------------------------%%%%->
D---------------------------------------------------------------%%%%->
A-----------88-788-8--------55-553-2--------88-788-8--------5555%%%%->
E---55-355-5--------88-788-8--------55-355-5--------88-788-8----%%%%->
>verse
>-----------------------------------%-----------------------------------|
>-----------------------------------%-----------------------------3-5---|
>-----------88-788-8--------55-553-2%-------88-788-8--------55-55-------|
>---55-355-5--------88-788-8--------%5-355-5--------88-788-8------------|
:
# chorus #   %=pause   |=single note (10=ten, not one+zero)  *=play 4X
G----------%%%---------%%%-------%%%---------%%%10*---->
D---3-3--3-%%%10-97-910%%%-------%%%-----1012%%%------->
A------3--3%%%---------%%%-------%%%0-010----%%%------->
E----------%%%-|------|%%%5-53-57%%%----|-|-|%%%-|----->
>chorus
>--1412---12-------------------------|
>-------14--1412--1412----12---------|
>---------------15----1514---15-14---|
>---|-|--|-|-|-|-|-|-|-|-|-|--|--|---|
!FOR MORE LAGWAGON BASS TABS, VISIT www.jiihootabs.cjb.net!
# solo-bg # :=rhythm line %=pause
G---:-------:-------:-------:-------:-------:-------:-------:-------|
D-----------------------------------------------------------5--57---|
A---%0-003-033-35-3200-003-030-320--00-003-033-35-3200-003-0-7------|
E----------------------------------3--------------------------------|
:
Then play verse (instead of % play E-5-|) and chorus.
:
# bridge #
G------------------------------------------------------------------->
D------------------------------------------------------------------->
A--12--------------10---------------8--------------10--------------->
E------------------------------------------------------------------->
>bridge
>-------------------------------------------------------------------|
>--------------------------------------------------10/121212/1414---|
>--12--------------10---------------8-------------------------------|
>-------------------------------------------------------------------|
:
# bridge2 # (Open your eyes...)  %=pause  *=play 4X
G---%%------%%------%%------%%------%%------%%------%%-------%%%|
D---%%------%%------%%------%%------%%------%%------%%-------%%%|
A---%%-*----%%-*----%%-*----%%-*----%%-*----%%-*----%%-*-----%%%|
E---%%5-----%%3-----%%1-----%%3-----%%5-----%%3-----%%1-----0%%%|
:
# bridge3 # (He was alone...) *=play 6X %=pause 
G----*---------------------------------------------------------------|
D---7--------*-------*-------*-------*-------*-------*---------------|
A-----------3-------5-------7-------0-------3-------5-------7%%%%777-|
E--------------------------------------------------------------------|
:
# outro # *=play 3-4X
G-|----------3X-----------|-------------------------|
D-|--*---*---*---*---*---*|--*---*---*---*---*------|
A-|-8---5---7---8---5---0-|-8---5---7---8---5---0---|
E-|-----------------------|-------------------------|
!FOR MORE ACCURATE LAGWAGON BASS TABS, VISIT www.jiihootabs.cjb.net!
Don't leave this on...the island of shame!
Tabbed by Jussi Heinonen 09.10.01

            
            
Suggest correction
Creating personal tab
Creating personal tab
You can edit any tab online and save it as your Personal.

You can edit, replace or remove any tab part or add personal notes – all changes will be seen only by you.

Personal tabs can be accessed anytime from any device, even offline.
Learn more »
comments
print report bad tab
guest
Wanna post a correction for this tab? Suggest correction