Oops, an error
Loading. Please wait.

Mister Bap Live tab

87 views 1 this week
2 commentsread comments
1 2 3 4 5
1 last vote to show rating
add to favorites
×
Save as Personal and add changes to this tab that will be seen only by you. Learn more ›
×
You can save this tab as Personal to edit and correct it or add notes. All changes will be seen only by you. Learn more »
launch autoscroll
font size
0
reset
how to read this tab
guitar tuner
edit
Autoscroll
slow
fast
+/-
esc
set tempo
stop
Author
Band:  Lagwagon
Title: Mister Bap (Live) 
Album: Live in a Dive

Tabber:|---> Chris W. <---|
Contact: LCPD@gmx.at
Date: 08/16/05


 |MAIN RIFF| (0:00 - 0:20) and (0:30 - 0:40)
e|------------------------------------------------------|
b|------------------------------------------------------|
g|------------------------------------------------------|
d|--77-7--99-9---77-7--99-9---77-7--99-9---6-5-4--------|
a|--77-7--99-9---77-7--99-9---77-7--99-9---6-5-4--------|
e|--55-5--77-7---55-5--77-7---55-5--77-7---4-3-2--------|

 
 |2nd RIFF (0:21 - 0:30)| play very fast and two times
e|------------------------------------------------------|
b|------------------------------------------------------|
g|------------------------------------------------------|
d|------------------------------------------------------|
a|--14-14-14-14--12-12-12-12--16-16-16-16--14-14-14-14--|
e|--12-12-12-12--10-10-10-10--14-14-14-14--12-12-12-12--|


That´s all! :)
Sounds fuckin´ cool and it´s very very easy to play!
HAVE FUN GUYS!!

If you wanna say somethig to me about the tab or
anything else: MAIL ME @ LCPD@gmx.at

            
            
Suggest correction
Creating personal tab
Creating personal tab
You can edit any tab online and save it as your Personal.

You can edit, replace or remove any tab part or add personal notes – all changes will be seen only by you.

Personal tabs can be accessed anytime from any device, even offline.
Learn more »
Give kudos to tab author, rate the tab!
1 2 3 4 5
comments
print report bad tab
2 comments total.
0 reply
TempoTantrum 145 Aug 20, 2005 08:00 PM

I think it's

e|----------------
b|----------------
g|----------------
d|--77-7--1010-10-
a|--77-7--1010-10-
e|--55-5--88---8--

at the beginning, but good tab man, rock on Laggie

0 reply
aut.RiPPeR 229 Aug 23, 2005 08:00 PM

Thanks Mate! :)

guest
You may want to rate the tab now too:
select rating
Wanna post a correction for this tab? Suggest correction